  0
SECTION
  2
HEADER
  9
$ACADVER
  1
AC1015
  9
$ACADMAINTVER
 70
     6
  9
$DWGCODEPAGE
  3
ANSI_1254
  9
$INSBASE
 10
0.0
 20
0.0
 30
0.0
  9
$EXTMIN
 10
0.0
 20
0.0
 30
0.0
  9
$EXTMAX
 10
279.4
 20
215.9
 30
0.0
  9
$LIMMIN
 10
0.0
 20
0.0
  9
$LIMMAX
 10
279.4
 20
215.9
  9
$ORTHOMODE
 70
     0
  9
$REGENMODE
 70
     1
  9
$FILLMODE
 70
     1
  9
$QTEXTMODE
 70
     0
  9
$MIRRTEXT
 70
     1
  9
$LTSCALE
 40
1.0
  9
$ATTMODE
 70
     1
  9
$TEXTSIZE
 40
4.2333333333
  9
$TRACEWID
 40
1.0
  9
$TEXTSTYLE
  7
Standard
  9
$CLAYER
  8
0
  9
$CELTYPE
  6
ByLayer
  9
$CECOLOR
 62
   256
  9
$CELTSCALE
 40
1.0
  9
$DISPSILH
 70
     0
  9
$DIMSCALE
 40
1.0
  9
$DIMASZ
 40
3.556
  9
$DIMEXO
 40
1.0
  9
$DIMDLI
 40
3.75
  9
$DIMRND
 40
0.0
  9
$DIMDLE
 40
0.0
  9
$DIMEXE
 40
1.0
  9
$DIMTP
 40
0.0
  9
$DIMTM
 40
0.0
  9
$DIMTXT
 40
4.2333333333
  9
$DIMCEN
 40
2.5
  9
$DIMTSZ
 40
0.0
  9
$DIMTOL
 70
     0
  9
$DIMLIM
 70
     0
  9
$DIMTIH
 70
     1
  9
$DIMTOH
 70
     1
  9
$DIMSE1
 70
     0
  9
$DIMSE2
 70
     0
  9
$DIMTAD
 70
     1
  9
$DIMZIN
 70
     1
  9
$DIMBLK
  1

  9
$DIMASO
 70
     1
  9
$DIMSHO
 70
     1
  9
$DIMPOST
  1

  9
$DIMAPOST
  1

  9
$DIMALT
 70
     0
  9
$DIMALTD
 70
     3
  9
$DIMALTF
 40
0.0393700787
  9
$DIMLFAC
 40
1.0
  9
$DIMTOFL
 70
     1
  9
$DIMTVP
 40
0.0
  9
$DIMTIX
 70
     0
  9
$DIMSOXD
 70
     0
  9
$DIMSAH
 70
     0
  9
$DIMBLK1
  1

  9
$DIMBLK2
  1

  9
$DIMSTYLE
  2
ISO-25
  9
$DIMCLRD
 70
     0
  9
$DIMCLRE
 70
     0
  9
$DIMCLRT
 70
     0
  9
$DIMTFAC
 40
1.0
  9
$DIMGAP
 40
1.524
  9
$DIMJUST
 70
     0
  9
$DIMSD1
 70
     0
  9
$DIMSD2
 70
     0
  9
$DIMTOLJ
 70
     0
  9
$DIMTZIN
 70
     1
  9
$DIMALTZ
 70
     0
  9
$DIMALTTZ
 70
     0
  9
$DIMUPT
 70
     0
  9
$DIMDEC
 70
     2
  9
$DIMTDEC
 70
     2
  9
$DIMALTU
 70
     2
  9
$DIMALTTD
 70
     3
  9
$DIMTXSTY
  7
Standard
  9
$DIMAUNIT
 70
     0
  9
$DIMADEC
 70
     2
  9
$DIMALTRND
 40
0.0
  9
$DIMAZIN
 70
     0
  9
$DIMDSEP
 70
    44
  9
$DIMATFIT
 70
     3
  9
$DIMFRAC
 70
     0
  9
$DIMLDRBLK
  1

  9
$DIMLUNIT
 70
     2
  9
$DIMLWD
 70
    -2
  9
$DIMLWE
 70
    -2
  9
$DIMTMOVE
 70
     0
  9
$LUNITS
 70
     2
  9
$LUPREC
 70
     2
  9
$SKETCHINC
 40
1.0
  9
$FILLETRAD
 40
10.0
  9
$AUNITS
 70
     0
  9
$AUPREC
 70
     2
  9
$MENU
  1
.
  9
$ELEVATION
 40
0.0
  9
$PELEVATION
 40
0.0
  9
$THICKNESS
 40
0.0
  9
$LIMCHECK
 70
     0
  9
$CHAMFERA
 40
0.0
  9
$CHAMFERB
 40
0.0
  9
$CHAMFERC
 40
0.0
  9
$CHAMFERD
 40
0.0
  9
$SKPOLY
 70
     0
  9
$TDCREATE
 40
2460837.462241748
  9
$TDUCREATE
 40
2460837.337241748
  9
$TDUPDATE
 40
2460837.462242245
  9
$TDUUPDATE
 40
2460837.337242245
  9
$TDINDWG
 40
0.0000000116
  9
$TDUSRTIMER
 40
0.0000000116
  9
$USRTIMER
 70
     1
  9
$ANGBASE
 50
0.0
  9
$ANGDIR
 70
     0
  9
$PDMODE
 70
     0
  9
$PDSIZE
 40
-1.0
  9
$PLINEWID
 40
0.0
  9
$SPLFRAME
 70
     0
  9
$SPLINETYPE
 70
     6
  9
$SPLINESEGS
 70
     8
  9
$HANDSEED
  5
25A
  9
$SURFTAB1
 70
     6
  9
$SURFTAB2
 70
     6
  9
$SURFTYPE
 70
     6
  9
$SURFU
 70
     6
  9
$SURFV
 70
     6
  9
$UCSBASE
  2

  9
$UCSNAME
  2

  9
$UCSORG
 10
0.0
 20
0.0
 30
0.0
  9
$UCSXDIR
 10
1.0
 20
0.0
 30
0.0
  9
$UCSYDIR
 10
0.0
 20
1.0
 30
0.0
  9
$UCSORTHOREF
  2

  9
$UCSORTHOVIEW
 70
     0
  9
$UCSORGTOP
 10
0.0
 20
0.0
 30
0.0
  9
$UCSORGBOTTOM
 10
0.0
 20
0.0
 30
0.0
  9
$UCSORGLEFT
 10
0.0
 20
0.0
 30
0.0
  9
$UCSORGRIGHT
 10
0.0
 20
0.0
 30
0.0
  9
$UCSORGFRONT
 10
0.0
 20
0.0
 30
0.0
  9
$UCSORGBACK
 10
0.0
 20
0.0
 30
0.0
  9
$PUCSBASE
  2

  9
$PUCSNAME
  2

  9
$PUCSORG
 10
0.0
 20
0.0
 30
0.0
  9
$PUCSXDIR
 10
1.0
 20
0.0
 30
0.0
  9
$PUCSYDIR
 10
0.0
 20
1.0
 30
0.0
  9
$PUCSORTHOREF
  2

  9
$PUCSORTHOVIEW
 70
     0
  9
$PUCSORGTOP
 10
0.0
 20
0.0
 30
0.0
  9
$PUCSORGBOTTOM
 10
0.0
 20
0.0
 30
0.0
  9
$PUCSORGLEFT
 10
0.0
 20
0.0
 30
0.0
  9
$PUCSORGRIGHT
 10
0.0
 20
0.0
 30
0.0
  9
$PUCSORGFRONT
 10
0.0
 20
0.0
 30
0.0
  9
$PUCSORGBACK
 10
0.0
 20
0.0
 30
0.0
  9
$USERI1
 70
     0
  9
$USERI2
 70
     0
  9
$USERI3
 70
     0
  9
$USERI4
 70
     0
  9
$USERI5
 70
     0
  9
$USERR1
 40
0.0
  9
$USERR2
 40
0.0
  9
$USERR3
 40
0.0
  9
$USERR4
 40
0.0
  9
$USERR5
 40
0.0
  9
$WORLDVIEW
 70
     1
  9
$SHADEDGE
 70
     3
  9
$SHADEDIF
 70
    70
  9
$TILEMODE
 70
     1
  9
$MAXACTVP
 70
    64
  9
$PINSBASE
 10
0.0
 20
0.0
 30
0.0
  9
$PLIMCHECK
 70
     0
  9
$PEXTMIN
 10
1.0000000000E+20
 20
1.0000000000E+20
 30
1.0000000000E+20
  9
$PEXTMAX
 10
-1.0000000000E+20
 20
-1.0000000000E+20
 30
-1.0000000000E+20
  9
$PLIMMIN
 10
0.0
 20
0.0
  9
$PLIMMAX
 10
420.0
 20
297.0
  9
$UNITMODE
 70
     0
  9
$VISRETAIN
 70
     1
  9
$PLINEGEN
 70
     0
  9
$PSLTSCALE
 70
     1
  9
$TREEDEPTH
 70
  3020
  9
$CMLSTYLE
  2
Standard
  9
$CMLJUST
 70
     0
  9
$CMLSCALE
 40
20.0
  9
$PROXYGRAPHICS
 70
     1
  9
$MEASUREMENT
 70
     1
  9
$CELWEIGHT
370
    -1
  9
$ENDCAPS
280
     0
  9
$JOINSTYLE
280
     0
  9
$LWDISPLAY
290
     1
  9
$INSUNITS
 70
     4
  9
$HYPERLINKBASE
  1

  9
$STYLESHEET
  1

  9
$XEDIT
290
     1
  9
$CEPSNTYPE
380
     0
  9
$PSTYLEMODE
290
     1
  9
$FINGERPRINTGUID
  2
{effbeb7c-dda3-477c-85d0-f23d77619aab}
  9
$VERSIONGUID
  2
{FAEB1C32-E019-11D5-929B-00C0DF256EC4}
  9
$EXTNAMES
290
     1
  9
$PSVPSCALE
 40
0.0
  9
$OLESTARTUP
290
     0
  0
ENDSEC
  0
SECTION
  2
CLASSES
  0
CLASS
  1
ACDBDICTIONARYWDFLT
  2
AcDbDictionaryWithDefault
  3
ObjectDBX Classes
 90
        0
280
     0
281
     0
  0
CLASS
  1
VISUALSTYLE
  2
AcDbVisualStyle
  3
ObjectDBX Classes
 90
     4095
280
     0
281
     0
  0
CLASS
  1
MATERIAL
  2
AcDbMaterial
  3
ObjectDBX Classes
 90
     1153
280
     0
281
     0
  0
CLASS
  1
SCALE
  2
AcDbScale
  3
ObjectDBX Classes
 90
     1153
280
     0
281
     0
  0
CLASS
  1
TABLESTYLE
  2
AcDbTableStyle
  3
ObjectDBX Classes
 90
     4095
280
     0
281
     0
  0
CLASS
  1
MLEADERSTYLE
  2
AcDbMLeaderStyle
  3
ACDB_MLEADERSTYLE_CLASS
 90
     4095
280
     0
281
     0
  0
CLASS
  1
SUN
  2
AcDbSun
  3
SCENEOE
 90
     1153
280
     0
281
     0
  0
CLASS
  1
ACDBPLACEHOLDER
  2
AcDbPlaceHolder
  3
ObjectDBX Classes
 90
        0
280
     0
281
     0
  0
CLASS
  1
LAYOUT
  2
AcDbLayout
  3
ObjectDBX Classes
 90
        0
280
     0
281
     0
  0
ENDSEC
  0
SECTION
  2
TABLES
  0
TABLE
  2
VPORT
  5
8
330
0
100
AcDbSymbolTable
 70
     1
  0
VPORT
  5
29
330
8
100
AcDbSymbolTableRecord
100
AcDbViewportTableRecord
  2
*Active
 70
     0
 10
0.0
 20
0.0
 11
1.0
 21
1.0
 12
139.7
 22
107.95
 13
0.0
 23
0.0
 14
10.0
 24
10.0
 15
10.0
 25
10.0
 16
0.0
 26
0.0
 36
1.0
 17
0.0
 27
0.0
 37
0.0
 40
215.9
 41
1.2941176471
 42
50.0
 43
0.0
 44
0.0
 50
0.0
 51
0.0
 71
     0
 72
  2000
 73
     1
 74
     3
 75
     0
 76
     0
 77
     0
 78
     0
281
     0
 65
     1
110
0.0
120
0.0
130
0.0
111
1.0
121
0.0
131
0.0
112
0.0
122
1.0
132
0.0
 79
     0
146
0.0
  0
ENDTAB
  0
TABLE
  2
LTYPE
  5
5
330
0
100
AcDbSymbolTable
 70
     6
  0
LTYPE
  5
14
330
5
100
AcDbSymbolTableRecord
100
AcDbLinetypeTableRecord
  2
ByBlock
 70
     0
  3

 72
    65
 73
     0
 40
0.0
  0
LTYPE
  5
15
330
5
100
AcDbSymbolTableRecord
100
AcDbLinetypeTableRecord
  2
ByLayer
 70
     0
  3

 72
    65
 73
     0
 40
0.0
  0
LTYPE
  5
16
330
5
100
AcDbSymbolTableRecord
100
AcDbLinetypeTableRecord
  2
Continuous
 70
     0
  3
Solid line
 72
    65
 73
     0
 40
0.0
  0
LTYPE
  5
6E
330
5
100
AcDbSymbolTableRecord
100
AcDbLinetypeTableRecord
  2
HIDDEN
 70
     0
  3
Hidden __ __ __ __ __ __ __ __ __ __ __ __ __ __
 72
    65
 73
     2
 40
1.905
 49
1.27
 74
     0
 49
-0.635
 74
     0
  0
LTYPE
  5
6F
330
5
100
AcDbSymbolTableRecord
100
AcDbLinetypeTableRecord
  2
PHANTOM
 70
     0
  3
Phantom ______  __  __  ______  __  __  ______
 72
    65
 73
     6
 40
12.7
 49
6.35
 74
     0
 49
-1.27
 74
     0
 49
1.27
 74
     0
 49
-1.27
 74
     0
 49
1.27
 74
     0
 49
-1.27
 74
     0
  0
LTYPE
  5
70
330
5
100
AcDbSymbolTableRecord
100
AcDbLinetypeTableRecord
  2
CENTER
 70
     0
  3
Center ____ _ ____ _ ____ _ ____ _ ____ _ ____
 72
    65
 73
     4
 40
10.16
 49
6.35
 74
     0
 49
-1.27
 74
     0
 49
1.27
 74
     0
 49
-1.27
 74
     0
  0
LTYPE
  5
71
330
5
100
AcDbSymbolTableRecord
100
AcDbLinetypeTableRecord
  2
CENTERX2
 70
     0
  3
Center (2x) ________  __  ________  __  _____
 72
    65
 73
     4
 40
20.32
 49
12.7
 74
     0
 49
-2.54
 74
     0
 49
2.54
 74
     0
 49
-2.54
 74
     0
  0
LTYPE
  5
72
330
5
100
AcDbSymbolTableRecord
100
AcDbLinetypeTableRecord
  2
DOT2
 70
     0
  3
Dot (.5x) ........................................
 72
    65
 73
     2
 40
0.635
 49
0.0
 74
     0
 49
-0.635
 74
     0
  0
ENDTAB
  0
TABLE
  2
LAYER
  5
2
330
0
100
AcDbSymbolTable
 70
    17
  0
LAYER
  5
10
330
2
100
AcDbSymbolTableRecord
100
AcDbLayerTableRecord
  2
0
 70
     0
 62
     7
  6
Continuous
370
    -3
390
F
  0
LAYER
  5
73
330
2
100
AcDbSymbolTableRecord
100
AcDbLayerTableRecord
  2
FORMAT
 70
     0
 62
     7
  6
Continuous
370
    -3
390
F
  0
LAYER
  5
74
330
2
100
AcDbSymbolTableRecord
100
AcDbLayerTableRecord
  2
\U+041E\U+0421\U+0415\U+0412\U+042B\U+0415
 70
     0
 62
     7
  6
Continuous
370
    -3
390
F
  0
LAYER
  5
75
330
2
100
AcDbSymbolTableRecord
100
AcDbLayerTableRecord
  2
\U+0412\U+041E\U+0414\U+042F\U+041D\U+042B\U+0415_\U+0417\U+041D\U+0410\U+041A\U+0418
 70
     0
 62
    11
  6
Continuous
370
    -3
390
F
  0
LAYER
  5
76
330
2
100
AcDbSymbolTableRecord
100
AcDbLayerTableRecord
  2
YARDIMCI_GEOMETRI
 70
     0
 62
    -6
  6
Continuous
290
     0
370
    -3
390
F
  0
LAYER
  5
77
330
2
100
AcDbSymbolTableRecord
100
AcDbLayerTableRecord
  2
SAYFA_CERCEVESI
 70
     0
 62
     7
  6
Continuous
370
    25
390
F
  0
LAYER
  5
78
330
2
100
AcDbSymbolTableRecord
100
AcDbLayerTableRecord
  2
ANTET
 70
     0
 62
     7
  6
Continuous
370
    -3
390
F
  0
LAYER
  5
79
330
2
100
AcDbSymbolTableRecord
100
AcDbLayerTableRecord
  2
OLCU
 70
     0
 62
   150
  6
Continuous
370
    -3
390
F
  0
LAYER
  5
7A
330
2
100
AcDbSymbolTableRecord
100
AcDbLayerTableRecord
  2
METIN
 70
     0
 62
    96
  6
Continuous
370
    -3
390
F
  0
LAYER
  5
7B
330
2
100
AcDbSymbolTableRecord
100
AcDbLayerTableRecord
  2
BALON
 70
     0
 62
     5
  6
Continuous
370
    -3
390
F
  0
LAYER
  5
7C
330
2
100
AcDbSymbolTableRecord
100
AcDbLayerTableRecord
  2
VURGU
 70
     0
 62
     7
  6
Continuous
370
    -3
390
F
  0
LAYER
  5
7D
330
2
100
AcDbSymbolTableRecord
100
AcDbLayerTableRecord
  2
SILIK
 70
     0
 62
     7
  6
Continuous
370
    -3
390
F
  0
LAYER
  5
7E
330
2
100
AcDbSymbolTableRecord
100
AcDbLayerTableRecord
  2
MODEL
 70
     0
 62
     7
  6
Continuous
370
    -3
390
F
  0
LAYER
  5
7F
330
2
100
AcDbSymbolTableRecord
100
AcDbLayerTableRecord
  2
DETAYLANDıRMA
 70
     0
 62
   190
  6
Continuous
370
    -3
390
F
  0
LAYER
  5
80
330
2
100
AcDbSymbolTableRecord
100
AcDbLayerTableRecord
  2
TOLERANS
 70
     0
 62
   230
  6
Continuous
370
    -3
390
F
  0
LAYER
  5
81
330
2
100
AcDbSymbolTableRecord
100
AcDbLayerTableRecord
  2
MERKEZ_CIZGILERI
 70
     0
 62
    30
  6
Continuous
370
    -3
390
F
  0
LAYER
  5
82
330
2
100
AcDbSymbolTableRecord
100
AcDbLayerTableRecord
  2
KESIT-DETAY_CIZGILERI
 70
     0
 62
     1
  6
Continuous
370
    -3
390
F
  0
ENDTAB
  0
TABLE
  2
STYLE
  5
3
330
0
100
AcDbSymbolTable
 70
     1
  0
STYLE
  5
11
330
3
100
AcDbSymbolTableRecord
100
AcDbTextStyleTableRecord
  2
Standard
 70
     0
 40
0.0
 41
1.0
 50
0.0
 71
     0
 42
4.2333333333
  3
txt
  4

  0
ENDTAB
  0
TABLE
  2
VIEW
  5
6
330
0
100
AcDbSymbolTable
 70
     0
  0
ENDTAB
  0
TABLE
  2
UCS
  5
7
330
0
100
AcDbSymbolTable
 70
     0
  0
ENDTAB
  0
TABLE
  2
APPID
  5
9
330
0
100
AcDbSymbolTable
 70
     1
  0
APPID
  5
12
330
9
100
AcDbSymbolTableRecord
100
AcDbRegAppTableRecord
  2
ACAD
 70
     0
  0
ENDTAB
  0
TABLE
  2
DIMSTYLE
  5
A
330
0
100
AcDbSymbolTable
 70
     1
100
AcDbDimStyleTable
  0
DIMSTYLE
105
27
330
A
100
AcDbSymbolTableRecord
100
AcDbDimStyleTableRecord
  2
ISO-25
 70
     0
 41
2.5
 42
0.625
 43
3.75
 44
1.25
 73
     0
 74
     0
 77
     1
 78
     8
140
2.5
141
2.5
143
0.0393700787
147
0.625
171
     3
172
     1
178
     0
271
     2
272
     2
274
     3
278
    44
283
     0
284
     8
340
11
  0
ENDTAB
  0
TABLE
  2
BLOCK_RECORD
  5
1
330
0
100
AcDbSymbolTable
 70
     6
  0
BLOCK_RECORD
  5
1F
330
1
100
AcDbSymbolTableRecord
100
AcDbBlockTableRecord
  2
*Model_Space
340
22
  0
BLOCK_RECORD
  5
1B
330
1
100
AcDbSymbolTableRecord
100
AcDbBlockTableRecord
  2
*Paper_Space
340
1E
  0
BLOCK_RECORD
  5
23
330
1
100
AcDbSymbolTableRecord
100
AcDbBlockTableRecord
  2
*Paper_Space0
340
26
  0
BLOCK_RECORD
  5
91
330
1
100
AcDbSymbolTableRecord
100
AcDbBlockTableRecord
  2
SW_CENTERMARKSYMBOL_0
340
0
102
{BLKREFS
331
9C
102
}
  0
BLOCK_RECORD
  5
150
330
1
100
AcDbSymbolTableRecord
100
AcDbBlockTableRecord
  2
SW_CENTERMARKSYMBOL_1
340
0
102
{BLKREFS
331
15B
102
}
  0
BLOCK_RECORD
  5
15C
330
1
100
AcDbSymbolTableRecord
100
AcDbBlockTableRecord
  2
SW_CENTERMARKSYMBOL_2
340
0
102
{BLKREFS
331
167
102
}
  0
BLOCK_RECORD
  5
168
330
1
100
AcDbSymbolTableRecord
100
AcDbBlockTableRecord
  2
SW_CENTERMARKSYMBOL_3
340
0
102
{BLKREFS
331
173
102
}
  0
BLOCK_RECORD
  5
174
330
1
100
AcDbSymbolTableRecord
100
AcDbBlockTableRecord
  2
SW_CENTERMARKSYMBOL_4
340
0
102
{BLKREFS
331
17F
102
}
  0
ENDTAB
  0
ENDSEC
  0
SECTION
  2
BLOCKS
  0
BLOCK
  5
20
330
1F
100
AcDbEntity
  8
0
100
AcDbBlockBegin
  2
*Model_Space
 70
     0
 10
0.0
 20
0.0
 30
0.0
  3
*Model_Space
  1

  0
ENDBLK
  5
21
330
1F
100
AcDbEntity
  8
0
100
AcDbBlockEnd
  0
BLOCK
  5
1C
330
1B
100
AcDbEntity
 67
     1
  8
0
100
AcDbBlockBegin
  2
*Paper_Space
 70
     0
 10
0.0
 20
0.0
 30
0.0
  3
*Paper_Space
  1

  0
ENDBLK
  5
1D
330
1B
100
AcDbEntity
 67
     1
  8
0
100
AcDbBlockEnd
  0
BLOCK
  5
24
330
23
100
AcDbEntity
  8
0
100
AcDbBlockBegin
  2
*Paper_Space0
 70
     0
 10
0.0
 20
0.0
 30
0.0
  3
*Paper_Space0
  1

  0
ENDBLK
  5
25
330
23
100
AcDbEntity
  8
0
100
AcDbBlockEnd
  0
BLOCK
  5
92
330
91
100
AcDbEntity
  8
0
100
AcDbBlockBegin
  2
SW_CENTERMARKSYMBOL_0
 70
     0
 10
0.0
 20
0.0
 30
0.0
  3
SW_CENTERMARKSYMBOL_0
  1

  0
LINE
  5
94
330
91
100
AcDbEntity
  8
FORMAT
 62
     0
100
AcDbLine
 10
0.0
 20
0.0
 30
0.0
 11
0.0
 21
2.5
 31
0.0
  0
LINE
  5
95
330
91
100
AcDbEntity
  8
FORMAT
 62
     0
100
AcDbLine
 10
0.0
 20
0.0
 30
0.0
 11
-2.5
 21
0.0
 31
0.0
  0
LINE
  5
96
330
91
100
AcDbEntity
  8
FORMAT
 62
     0
100
AcDbLine
 10
0.0
 20
0.0
 30
0.0
 11
0.0
 21
-2.5
 31
0.0
  0
LINE
  5
97
330
91
100
AcDbEntity
  8
FORMAT
 62
     0
100
AcDbLine
 10
0.0
 20
0.0
 30
0.0
 11
2.5
 21
0.0
 31
0.0
  0
LINE
  5
98
330
91
100
AcDbEntity
  8
FORMAT
 62
     0
100
AcDbLine
 10
0.0
 20
5.0
 30
0.0
 11
0.0
 21
260.5
 31
0.0
  0
LINE
  5
99
330
91
100
AcDbEntity
  8
FORMAT
 62
     0
100
AcDbLine
 10
-5.0
 20
0.0
 30
0.0
 11
-260.5
 21
0.0
 31
0.0
  0
LINE
  5
9A
330
91
100
AcDbEntity
  8
FORMAT
 62
     0
100
AcDbLine
 10
0.0
 20
-5.0
 30
0.0
 11
0.0
 21
-260.5
 31
0.0
  0
LINE
  5
9B
330
91
100
AcDbEntity
  8
FORMAT
 62
     0
100
AcDbLine
 10
5.0
 20
0.0
 30
0.0
 11
260.5
 21
0.0
 31
0.0
  0
ENDBLK
  5
93
330
91
100
AcDbEntity
  8
0
100
AcDbBlockEnd
  0
BLOCK
  5
151
330
150
100
AcDbEntity
  8
0
100
AcDbBlockBegin
  2
SW_CENTERMARKSYMBOL_1
 70
     0
 10
0.0
 20
0.0
 30
0.0
  3
SW_CENTERMARKSYMBOL_1
  1

  0
LINE
  5
153
330
150
100
AcDbEntity
  8
FORMAT
 62
     0
100
AcDbLine
 10
0.0
 20
0.0
 30
0.0
 11
0.0
 21
2.5
 31
0.0
  0
LINE
  5
154
330
150
100
AcDbEntity
  8
FORMAT
 62
     0
100
AcDbLine
 10
0.0
 20
0.0
 30
0.0
 11
-2.5
 21
0.0
 31
0.0
  0
LINE
  5
155
330
150
100
AcDbEntity
  8
FORMAT
 62
     0
100
AcDbLine
 10
0.0
 20
0.0
 30
0.0
 11
0.0
 21
-2.5
 31
0.0
  0
LINE
  5
156
330
150
100
AcDbEntity
  8
FORMAT
 62
     0
100
AcDbLine
 10
0.0
 20
0.0
 30
0.0
 11
2.5
 21
0.0
 31
0.0
  0
LINE
  5
157
330
150
100
AcDbEntity
  8
FORMAT
 62
     0
100
AcDbLine
 10
0.0
 20
5.0
 30
0.0
 11
0.0
 21
9.7150898701
 31
0.0
  0
LINE
  5
158
330
150
100
AcDbEntity
  8
FORMAT
 62
     0
100
AcDbLine
 10
-5.0
 20
0.0
 30
0.0
 11
-9.7150898701
 21
0.0
 31
0.0
  0
LINE
  5
159
330
150
100
AcDbEntity
  8
FORMAT
 62
     0
100
AcDbLine
 10
0.0
 20
-5.0
 30
0.0
 11
0.0
 21
-9.7150898701
 31
0.0
  0
LINE
  5
15A
330
150
100
AcDbEntity
  8
FORMAT
 62
     0
100
AcDbLine
 10
5.0
 20
0.0
 30
0.0
 11
9.7150898701
 21
0.0
 31
0.0
  0
ENDBLK
  5
152
330
150
100
AcDbEntity
  8
0
100
AcDbBlockEnd
  0
BLOCK
  5
15D
330
15C
100
AcDbEntity
  8
0
100
AcDbBlockBegin
  2
SW_CENTERMARKSYMBOL_2
 70
     0
 10
0.0
 20
0.0
 30
0.0
  3
SW_CENTERMARKSYMBOL_2
  1

  0
LINE
  5
15F
330
15C
100
AcDbEntity
  8
FORMAT
 62
     0
100
AcDbLine
 10
0.0
 20
0.0
 30
0.0
 11
0.0
 21
2.5
 31
0.0
  0
LINE
  5
160
330
15C
100
AcDbEntity
  8
FORMAT
 62
     0
100
AcDbLine
 10
0.0
 20
0.0
 30
0.0
 11
-2.5
 21
0.0
 31
0.0
  0
LINE
  5
161
330
15C
100
AcDbEntity
  8
FORMAT
 62
     0
100
AcDbLine
 10
0.0
 20
0.0
 30
0.0
 11
0.0
 21
-2.5
 31
0.0
  0
LINE
  5
162
330
15C
100
AcDbEntity
  8
FORMAT
 62
     0
100
AcDbLine
 10
0.0
 20
0.0
 30
0.0
 11
2.5
 21
0.0
 31
0.0
  0
LINE
  5
163
330
15C
100
AcDbEntity
  8
FORMAT
 62
     0
100
AcDbLine
 10
0.0
 20
5.0
 30
0.0
 11
0.0
 21
7.1
 31
0.0
  0
LINE
  5
164
330
15C
100
AcDbEntity
  8
FORMAT
 62
     0
100
AcDbLine
 10
-5.0
 20
0.0
 30
0.0
 11
-7.1
 21
0.0
 31
0.0
  0
LINE
  5
165
330
15C
100
AcDbEntity
  8
FORMAT
 62
     0
100
AcDbLine
 10
0.0
 20
-5.0
 30
0.0
 11
0.0
 21
-7.1
 31
0.0
  0
LINE
  5
166
330
15C
100
AcDbEntity
  8
FORMAT
 62
     0
100
AcDbLine
 10
5.0
 20
0.0
 30
0.0
 11
7.1
 21
0.0
 31
0.0
  0
ENDBLK
  5
15E
330
15C
100
AcDbEntity
  8
0
100
AcDbBlockEnd
  0
BLOCK
  5
169
330
168
100
AcDbEntity
  8
0
100
AcDbBlockBegin
  2
SW_CENTERMARKSYMBOL_3
 70
     0
 10
0.0
 20
0.0
 30
0.0
  3
SW_CENTERMARKSYMBOL_3
  1

  0
LINE
  5
16B
330
168
100
AcDbEntity
  8
FORMAT
 62
     0
100
AcDbLine
 10
0.0
 20
0.0
 30
0.0
 11
0.0
 21
2.5
 31
0.0
  0
LINE
  5
16C
330
168
100
AcDbEntity
  8
FORMAT
 62
     0
100
AcDbLine
 10
0.0
 20
0.0
 30
0.0
 11
-2.5
 21
0.0
 31
0.0
  0
LINE
  5
16D
330
168
100
AcDbEntity
  8
FORMAT
 62
     0
100
AcDbLine
 10
0.0
 20
0.0
 30
0.0
 11
0.0
 21
-2.5
 31
0.0
  0
LINE
  5
16E
330
168
100
AcDbEntity
  8
FORMAT
 62
     0
100
AcDbLine
 10
0.0
 20
0.0
 30
0.0
 11
2.5
 21
0.0
 31
0.0
  0
LINE
  5
16F
330
168
100
AcDbEntity
  8
FORMAT
 62
     0
100
AcDbLine
 10
0.0
 20
5.0
 30
0.0
 11
0.0
 21
7.1
 31
0.0
  0
LINE
  5
170
330
168
100
AcDbEntity
  8
FORMAT
 62
     0
100
AcDbLine
 10
-5.0
 20
0.0
 30
0.0
 11
-7.1
 21
0.0
 31
0.0
  0
LINE
  5
171
330
168
100
AcDbEntity
  8
FORMAT
 62
     0
100
AcDbLine
 10
0.0
 20
-5.0
 30
0.0
 11
0.0
 21
-7.1
 31
0.0
  0
LINE
  5
172
330
168
100
AcDbEntity
  8
FORMAT
 62
     0
100
AcDbLine
 10
5.0
 20
0.0
 30
0.0
 11
7.1
 21
0.0
 31
0.0
  0
ENDBLK
  5
16A
330
168
100
AcDbEntity
  8
0
100
AcDbBlockEnd
  0
BLOCK
  5
175
330
174
100
AcDbEntity
  8
0
100
AcDbBlockBegin
  2
SW_CENTERMARKSYMBOL_4
 70
     0
 10
0.0
 20
0.0
 30
0.0
  3
SW_CENTERMARKSYMBOL_4
  1

  0
LINE
  5
177
330
174
100
AcDbEntity
  8
FORMAT
 62
     0
100
AcDbLine
 10
0.0
 20
0.0
 30
0.0
 11
0.0
 21
2.5
 31
0.0
  0
LINE
  5
178
330
174
100
AcDbEntity
  8
FORMAT
 62
     0
100
AcDbLine
 10
0.0
 20
0.0
 30
0.0
 11
-2.5
 21
0.0
 31
0.0
  0
LINE
  5
179
330
174
100
AcDbEntity
  8
FORMAT
 62
     0
100
AcDbLine
 10
0.0
 20
0.0
 30
0.0
 11
0.0
 21
-2.5
 31
0.0
  0
LINE
  5
17A
330
174
100
AcDbEntity
  8
FORMAT
 62
     0
100
AcDbLine
 10
0.0
 20
0.0
 30
0.0
 11
2.5
 21
0.0
 31
0.0
  0
LINE
  5
17B
330
174
100
AcDbEntity
  8
FORMAT
 62
     0
100
AcDbLine
 10
0.0
 20
5.0
 30
0.0
 11
0.0
 21
7.1
 31
0.0
  0
LINE
  5
17C
330
174
100
AcDbEntity
  8
FORMAT
 62
     0
100
AcDbLine
 10
-5.0
 20
0.0
 30
0.0
 11
-7.1
 21
0.0
 31
0.0
  0
LINE
  5
17D
330
174
100
AcDbEntity
  8
FORMAT
 62
     0
100
AcDbLine
 10
0.0
 20
-5.0
 30
0.0
 11
0.0
 21
-7.1
 31
0.0
  0
LINE
  5
17E
330
174
100
AcDbEntity
  8
FORMAT
 62
     0
100
AcDbLine
 10
5.0
 20
0.0
 30
0.0
 11
7.1
 21
0.0
 31
0.0
  0
ENDBLK
  5
176
330
174
100
AcDbEntity
  8
0
100
AcDbBlockEnd
  0
ENDSEC
  0
SECTION
  2
ENTITIES
  0
LINE
  5
83
330
1F
100
AcDbEntity
  8
0
  6
Continuous
 62
     7
370
    25
100
AcDbLine
 10
188.5123606538
 20
361.1179060822
 30
0.0
 11
188.4573223639
 21
364.2710475985
 31
0.0
  0
LINE
  5
84
330
1F
100
AcDbEntity
  8
0
  6
Continuous
 62
     7
370
    25
100
AcDbLine
 10
54.4111540521
 20
364.2710475985
 30
0.0
 11
54.3561157622
 21
361.1179060822
 31
0.0
  0
CIRCLE
  5
85
330
1F
100
AcDbEntity
  8
0
  6
Continuous
 62
     7
370
    25
100
AcDbCircle
 10
121.434238208
 20
111.2710475985
 30
0.0
 40
250.7
  0
ARC
  5
86
330
1F
100
AcDbEntity
  8
0
  6
Continuous
 62
     7
370
    25
100
AcDbCircle
 10
121.434238208
 20
111.2710475985
 30
0.0
 40
258.7
100
AcDbArc
 50
105.0424091743
 51
74.9575908257
  0
SPLINE
  5
87
330
1F
100
AcDbEntity
  8
0
  6
Continuous
 62
     7
370
    25
100
AcDbSpline
210
0.0
220
0.0
230
1.0
 70
     8
 71
     3
 72
    28
 73
    24
 74
     0
 42
0.00000001
 43
0.00000001
 40
0.0
 40
0.0
 40
0.0
 40
0.0
 40
0.1249999999999952
 40
0.1249999999999952
 40
0.1874999999999941
 40
0.1874999999999941
 40
0.249999999999993
 40
0.249999999999993
 40
0.3749999999999947
 40
0.3749999999999947
 40
0.4374999999999956
 40
0.4374999999999956
 40
0.4999999999999964
 40
0.4999999999999964
 40
0.6250000000000006
 40
0.6250000000000006
 40
0.7500000000000036
 40
0.7500000000000036
 40
0.8125000000000029
 40
0.8125000000000029
 40
0.8750000000000022
 40
0.8750000000000022
 40
1.0
 40
1.0
 40
1.0
 40
1.0
 10
68.5756666365429
 20
364.513345430928
 30
0.0
 10
68.09952829068078
 20
364.413962377433
 30
0.0
 10
67.59136820194158
 20
364.2626995371055
 30
0.0
 10
66.78084066025497
 20
363.997587500616
 30
0.0
 10
66.50253710871674
 20
363.9025908248367
 30
0.0
 10
65.92867162976368
 20
363.7040030928596
 30
0.0
 10
65.63409650672398
 20
363.6007582487774
 30
0.0
 10
64.73997191100214
 20
363.2904657903669
 30
0.0
 10
64.1249746479447
 20
363.0813067464463
 30
0.0
 10
63.16740882942825
 20
362.7841872935826
 30
0.0
 10
62.84137907482965
 20
362.6876446604841
 30
0.0
 10
62.19045982364541
 20
362.5062896680234
 30
0.0
 10
61.86399919860383
 20
362.4209633503265
 30
0.0
 10
60.88130961390011
 20
362.1823473973064
 30
0.0
 10
60.22162580747734
 20
362.0470197613675
 30
0.0
 10
58.89472259063537
 20
361.8178986192476
 30
0.0
 10
58.24933980768386
 20
361.7276339375481
 30
0.0
 10
57.31771924545491
 20
361.6060408705327
 30
0.0
 10
57.01290703772888
 20
361.5676613048164
 30
0.0
 10
56.41565022569073
 20
361.490186979304
 30
0.0
 10
56.12297811293438
 20
361.4510178199592
 30
0.0
 10
55.2821395937717
 20
361.3263702282353
 30
0.0
 10
54.76476030113128
 20
361.2332638225026
 30
0.0
 10
54.29280977945712
 20
361.1064305781684
 30
0.0
  0
ARC
  5
88
330
1F
100
AcDbEntity
  8
0
  6
Continuous
 62
     7
370
    25
100
AcDbCircle
 10
121.434238208
 20
111.2710475985
 30
0.0
 40
258.6999999999999
100
AcDbArc
 50
78.2100811644
 51
101.7899188356
  0
SPLINE
  5
89
330
1F
100
AcDbEntity
  8
0
  6
Continuous
 62
     7
370
    25
100
AcDbSpline
210
0.0
220
0.0
230
1.0
 70
     8
 71
     3
 72
    28
 73
    24
 74
     0
 42
0.00000001
 43
0.00000001
 40
0.0
 40
0.0
 40
0.0
 40
0.0
 40
0.1249999999999952
 40
0.1249999999999952
 40
0.1874999999999941
 40
0.1874999999999941
 40
0.249999999999993
 40
0.249999999999993
 40
0.3749999999999947
 40
0.3749999999999947
 40
0.4374999999999956
 40
0.4374999999999956
 40
0.4999999999999964
 40
0.4999999999999964
 40
0.6250000000000006
 40
0.6250000000000006
 40
0.7500000000000036
 40
0.7500000000000036
 40
0.8125000000000029
 40
0.8125000000000029
 40
0.8750000000000022
 40
0.8750000000000022
 40
1.0
 40
1.0
 40
1.0
 40
1.0
 10
174.2928097794572
 20
364.513345430928
 30
0.0
 10
174.7689481253193
 20
364.413962377433
 30
0.0
 10
175.2771082140585
 20
364.2626995371055
 30
0.0
 10
176.0876357557451
 20
363.997587500616
 30
0.0
 10
176.3659393072833
 20
363.9025908248367
 30
0.0
 10
176.9398047862364
 20
363.7040030928596
 30
0.0
 10
177.2343799092761
 20
363.6007582487774
 30
0.0
 10
178.1285045049979
 20
363.2904657903669
 30
0.0
 10
178.7435017680554
 20
363.0813067464463
 30
0.0
 10
179.7010675865718
 20
362.7841872935826
 30
0.0
 10
180.0270973411704
 20
362.6876446604841
 30
0.0
 10
180.6780165923547
 20
362.5062896680234
 30
0.0
 10
181.0044772173962
 20
362.4209633503265
 30
0.0
 10
181.9871668021
 20
362.1823473973064
 30
0.0
 10
182.6468506085227
 20
362.0470197613675
 30
0.0
 10
183.9737538253647
 20
361.8178986192476
 30
0.0
 10
184.6191366083162
 20
361.7276339375481
 30
0.0
 10
185.5507571705452
 20
361.6060408705327
 30
0.0
 10
185.8555693782712
 20
361.5676613048164
 30
0.0
 10
186.4528261903093
 20
361.490186979304
 30
0.0
 10
186.7454983030657
 20
361.4510178199592
 30
0.0
 10
187.5863368222284
 20
361.3263702282353
 30
0.0
 10
188.1037161148688
 20
361.2332638225026
 30
0.0
 10
188.575666636543
 20
361.1064305781684
 30
0.0
  0
CIRCLE
  5
8A
330
1F
100
AcDbEntity
  8
0
  6
Continuous
 62
     7
370
    25
100
AcDbCircle
 10
121.434238208
 20
111.2710475985
 30
0.0
 40
226.0
  0
SPLINE
  5
8B
330
1F
100
AcDbEntity
  8
0
  6
Continuous
 62
     7
370
    25
100
AcDbSpline
210
0.0
220
0.0
230
1.0
 70
     8
 71
     3
 72
    10
 73
     6
 74
     0
 42
0.00000001
 43
0.00000001
 40
0.0
 40
0.0
 40
0.0
 40
0.0
 40
0.3061133269095482
 40
0.7562734770144925
 40
0.9999999999999999
 40
0.9999999999999999
 40
0.9999999999999999
 40
0.9999999999999999
 10
171.5544745978081
 20
365.0694781287904
 30
0.0
 10
171.556492170685
 20
365.0690787677191
 30
0.0
 10
171.5614767196106
 20
365.0680921194443
 30
0.0
 10
172.5813552898018
 20
364.8665555278805
 30
0.0
 10
173.6299579629939
 20
364.6505242084418
 30
0.0
 10
173.99827788243
 20
364.5746435720432
 30
0.0
  0
SPLINE
  5
8C
330
1F
100
AcDbEntity
  8
0
  6
Continuous
 62
     7
370
    25
100
AcDbSpline
210
0.0
220
0.0
230
1.0
 70
     8
 71
     3
 72
    10
 73
     6
 74
     0
 42
0.00000001
 43
0.00000001
 40
0.0
 40
0.0
 40
0.0
 40
0.0
 40
0.4535460131147743
 40
0.9075135683558401
 40
1.0
 40
1.0
 40
1.0
 40
1.0
 10
188.8701985335701
 20
361.0270910789149
 30
0.0
 10
189.5095495725817
 20
360.8526671314202
 30
0.0
 10
190.7888458866661
 20
360.5036571204832
 30
0.0
 10
191.53221255705
 20
360.293091919067
 30
0.0
 10
191.3732749440681
 20
360.3377133981623
 30
0.0
 10
191.3463750164776
 20
360.3452655095483
 30
0.0
  0
SPLINE
  5
8D
330
1F
100
AcDbEntity
  8
0
  6
Continuous
 62
     7
370
    25
100
AcDbSpline
210
0.0
220
0.0
230
1.0
 70
     8
 71
     3
 72
    10
 73
     6
 74
     0
 42
0.00000001
 43
0.00000001
 40
0.0
 40
0.0
 40
0.0
 40
0.0
 40
0.4535460131147743
 40
0.9075135683558401
 40
1.0
 40
1.0
 40
1.0
 40
1.0
 10
53.99827788242992
 20
361.0270910789149
 30
0.0
 10
53.35892684341835
 20
360.8526671314202
 30
0.0
 10
52.07963052933394
 20
360.5036571204832
 30
0.0
 10
51.33626385895007
 20
360.293091919067
 30
0.0
 10
51.495201471932
 20
360.3377133981623
 30
0.0
 10
51.52210139952244
 20
360.3452655095483
 30
0.0
  0
SPLINE
  5
8E
330
1F
100
AcDbEntity
  8
0
  6
Continuous
 62
     7
370
    25
100
AcDbSpline
210
0.0
220
0.0
230
1.0
 70
     8
 71
     3
 72
    10
 73
     6
 74
     0
 42
0.00000001
 43
0.00000001
 40
0.0
 40
0.0
 40
0.0
 40
0.0
 40
0.3061133269095482
 40
0.7562734770144925
 40
0.9999999999999999
 40
0.9999999999999999
 40
0.9999999999999999
 40
0.9999999999999999
 10
71.31400181819193
 20
365.0694781287904
 30
0.0
 10
71.31198424531505
 20
365.0690787677191
 30
0.0
 10
71.30699969638948
 20
365.0680921194443
 30
0.0
 10
70.28712112619823
 20
364.8665555278805
 30
0.0
 10
69.23851845300614
 20
364.6505242084418
 30
0.0
 10
68.8701985335701
 20
364.5746435720432
 30
0.0
  0
LINE
  5
8F
330
1F
100
AcDbEntity
  8
0
  6
Continuous
 62
     7
370
    25
100
AcDbLine
 10
175.0067538261
 20
364.2710475985
 30
0.0
 11
188.4573223639
 21
364.2710475985
 31
0.0
  0
LINE
  5
90
330
1F
100
AcDbEntity
  8
0
  6
Continuous
 62
     7
370
    25
100
AcDbLine
 10
67.8238405966
 20
364.2710475985
 30
0.0
 11
54.4111540521
 21
364.2710475985
 31
0.0
  0
INSERT
  5
9C
330
1F
100
AcDbEntity
  8
FORMAT
 62
     7
100
AcDbBlockReference
  2
SW_CENTERMARKSYMBOL_0
 10
121.434238208
 20
111.2710475985
 30
0.0
  0
ARC
  5
9D
330
1F
100
AcDbEntity
  8
0
  6
Continuous
 62
     7
370
    25
100
AcDbCircle
 10
1150.1052540379
 20
-139.4289524015
 30
0.0
 40
8.000000000000028
100
AcDbArc
 50
270.0
 51
0.0
  0
ARC
  5
9E
330
1F
100
AcDbEntity
  8
0
  6
Continuous
 62
     7
370
    25
100
AcDbCircle
 10
1150.1052540379
 20
361.9710475985
 30
0.0
 40
8.000000000000057
100
AcDbArc
 50
0.0
 51
90.0
  0
LINE
  5
9F
330
1F
100
AcDbEntity
  8
0
  6
Continuous
 62
     7
370
    25
100
AcDbLine
 10
1136.4189625368
 20
-147.4289524015
 30
0.0
 11
1150.1052540379
 21
-147.4289524015
 31
0.0
  0
ARC
  5
A0
330
1F
100
AcDbEntity
  8
0
  6
Continuous
 62
     7
370
    25
100
AcDbCircle
 10
1136.4189625368
 20
-139.4289524015
 30
0.0
 40
8.000000000000105
100
AcDbArc
 50
225.0
 51
270.0
  0
ARC
  5
A1
330
1F
100
AcDbEntity
  8
0
  6
Continuous
 62
     7
370
    25
100
AcDbCircle
 10
1136.4189625368
 20
361.9710475985
 30
0.0
 40
8.000000000000105
100
AcDbArc
 50
90.0
 51
135.0
  0
ARC
  5
A2
330
1F
100
AcDbEntity
  8
0
  6
Continuous
 62
     7
370
    25
100
AcDbCircle
 10
859.7915455389
 20
-139.4289524015
 30
0.0
 40
8.000000000000028
100
AcDbArc
 50
270.0
 51
315.0
  0
ARC
  5
A3
330
1F
100
AcDbEntity
  8
0
  6
Continuous
 62
     7
370
    25
100
AcDbCircle
 10
859.7915455389
 20
361.9710475985
 30
0.0
 40
8.000000000000057
100
AcDbArc
 50
45.0
 51
90.0
  0
LINE
  5
A4
330
1F
100
AcDbEntity
  8
0
  6
Continuous
 62
     7
370
    25
100
AcDbLine
 10
846.1052540379
 20
-147.4289524015
 30
0.0
 11
859.7915455389
 21
-147.4289524015
 31
0.0
  0
ARC
  5
A5
330
1F
100
AcDbEntity
  8
0
  6
Continuous
 62
     7
370
    25
100
AcDbCircle
 10
846.1052540379
 20
361.9710475985
 30
0.0
 40
8.000000000000057
100
AcDbArc
 50
90.0
 51
180.0
  0
ARC
  5
A6
330
1F
100
AcDbEntity
  8
0
  6
Continuous
 62
     7
370
    25
100
AcDbCircle
 10
846.1052540379
 20
-139.4289524015
 30
0.0
 40
8.000000000000028
100
AcDbArc
 50
180.0
 51
270.0
  0
ARC
  5
A7
330
1F
100
AcDbEntity
  8
0
  6
Continuous
 62
     7
370
    25
100
AcDbCircle
 10
1058.1052540379
 20
169.2710475985
 30
0.0
 40
200.0
100
AcDbArc
 50
80.1900599512
 51
90.0
  0
ARC
  5
A8
330
1F
100
AcDbEntity
  8
0
  6
Continuous
 62
     7
370
    25
100
AcDbCircle
 10
1058.1052540379
 20
53.2710475985
 30
0.0
 40
200.0
100
AcDbArc
 50
270.0
 51
279.8099400488
  0
LINE
  5
A9
330
1F
100
AcDbEntity
  8
0
  6
Continuous
 62
     7
370
    25
100
AcDbLine
 10
1058.1052540379
 20
369.2710475985
 30
0.0
 11
938.1052540379
 21
369.2710475985
 31
0.0
  0
LINE
  5
AA
330
1F
100
AcDbEntity
  8
0
  6
Continuous
 62
     7
370
    25
100
AcDbLine
 10
938.1052540379
 20
-146.7289524015
 30
0.0
 11
1058.1052540379
 21
-146.7289524015
 31
0.0
  0
ARC
  5
AB
330
1F
100
AcDbEntity
  8
0
  6
Continuous
 62
     7
370
    25
100
AcDbCircle
 10
938.1052540379
 20
169.2710475985
 30
0.0
 40
200.0
100
AcDbArc
 50
90.0
 51
99.8099400488
  0
ARC
  5
AC
330
1F
100
AcDbEntity
  8
0
  6
Continuous
 62
     7
370
    25
100
AcDbCircle
 10
938.1052540379
 20
53.2710475985
 30
0.0
 40
200.0000000000001
100
AcDbArc
 50
260.1900599512
 51
270.0
  0
LINE
  5
AD
330
1F
100
AcDbEntity
  8
0
  6
Continuous
 62
     7
370
    25
100
AcDbLine
 10
1130.7621082874
 20
367.627901848
 30
0.0
 11
1127.4483997884
 21
364.3141933491
 31
0.0
  0
LINE
  5
AE
330
1F
100
AcDbEntity
  8
0
  6
Continuous
 62
     7
370
    25
100
AcDbLine
 10
1127.4483997884
 20
-141.772098152
 30
0.0
 11
1130.7621082874
 21
-145.0858066509
 31
0.0
  0
LINE
  5
AF
330
1F
100
AcDbEntity
  8
0
  6
Continuous
 62
     7
370
    25
100
AcDbLine
 10
865.4483997884
 20
-145.0858066509
 30
0.0
 11
868.7621082874
 21
-141.772098152
 31
0.0
  0
LINE
  5
B0
330
1F
100
AcDbEntity
  8
0
  6
Continuous
 62
     7
370
    25
100
AcDbLine
 10
868.7621082874
 20
364.3141933491
 30
0.0
 11
865.4483997884
 21
367.627901848
 31
0.0
  0
ARC
  5
B1
330
1F
100
AcDbEntity
  8
0
  6
Continuous
 62
     7
370
    25
100
AcDbCircle
 10
1089.6256375929
 20
-129.0239480007
 30
0.0
 40
14.99999999999998
100
AcDbArc
 50
279.8099400488
 51
306.8491150082
  0
ARC
  5
B2
330
1F
100
AcDbEntity
  8
0
  6
Continuous
 62
     7
370
    25
100
AcDbCircle
 10
1089.6256375929
 20
351.5660431978
 30
0.0
 40
14.99999999999995
100
AcDbArc
 50
53.1508849918
 51
80.1900599512
  0
ARC
  5
B3
330
1F
100
AcDbEntity
  8
0
  6
Continuous
 62
     7
370
    25
100
AcDbCircle
 10
906.5848704828
 20
-129.0239480007
 30
0.0
 40
14.99999999999998
100
AcDbArc
 50
233.1508849918
 51
260.1900599512
  0
ARC
  5
B4
330
1F
100
AcDbEntity
  8
0
  6
Continuous
 62
     7
370
    25
100
AcDbCircle
 10
906.5848704828
 20
351.5660431978
 30
0.0
 40
14.99999999999996
100
AcDbArc
 50
99.8099400488
 51
126.8491150082
  0
ARC
  5
B5
330
1F
100
AcDbEntity
  8
0
  6
Continuous
 62
     7
370
    25
100
AcDbCircle
 10
1121.7915455389
 20
369.9710475985
 30
0.0
 40
8.000000000000057
100
AcDbArc
 50
270.0
 51
315.0
  0
ARC
  5
B6
330
1F
100
AcDbEntity
  8
0
  6
Continuous
 62
     7
370
    25
100
AcDbCircle
 10
1121.7915455389
 20
-147.4289524015
 30
0.0
 40
8.0
100
AcDbArc
 50
45.0
 51
90.0
  0
ARC
  5
B7
330
1F
100
AcDbEntity
  8
0
  6
Continuous
 62
     7
370
    25
100
AcDbCircle
 10
874.4189625368
 20
369.9710475985
 30
0.0
 40
8.000000000000057
100
AcDbArc
 50
225.0
 51
270.0
  0
ARC
  5
B8
330
1F
100
AcDbEntity
  8
0
  6
Continuous
 62
     7
370
    25
100
AcDbCircle
 10
874.4189625368
 20
-147.4289524015
 30
0.0
 40
8.0
100
AcDbArc
 50
90.0
 51
135.0
  0
ARC
  5
B9
330
1F
100
AcDbEntity
  8
0
  6
Continuous
 62
     7
370
    25
100
AcDbCircle
 10
1103.4189625368
 20
369.9710475985
 30
0.0
 40
8.000000000000087
100
AcDbArc
 50
233.1508849918
 51
270.0
  0
ARC
  5
BA
330
1F
100
AcDbEntity
  8
0
  6
Continuous
 62
     7
370
    25
100
AcDbCircle
 10
1103.4189625368
 20
-147.4289524015
 30
0.0
 40
8.000000000000064
100
AcDbArc
 50
90.0
 51
126.8491150082
  0
ARC
  5
BB
330
1F
100
AcDbEntity
  8
0
  6
Continuous
 62
     7
370
    25
100
AcDbCircle
 10
892.7915455389
 20
369.9710475985
 30
0.0
 40
8.000000000000057
100
AcDbArc
 50
270.0
 51
306.8491150082
  0
ARC
  5
BC
330
1F
100
AcDbEntity
  8
0
  6
Continuous
 62
     7
370
    25
100
AcDbCircle
 10
892.7915455389
 20
-147.4289524015
 30
0.0
 40
8.0
100
AcDbArc
 50
53.1508849918
 51
90.0
  0
LINE
  5
BD
330
1F
100
AcDbEntity
  8
0
  6
Continuous
 62
     7
370
    25
100
AcDbLine
 10
1121.7915455389
 20
361.9710475985
 30
0.0
 11
1103.4189625368
 21
361.9710475985
 31
0.0
  0
LINE
  5
BE
330
1F
100
AcDbEntity
  8
0
  6
Continuous
 62
     7
370
    25
100
AcDbLine
 10
1103.4189625368
 20
-139.4289524015
 30
0.0
 11
1121.7915455389
 21
-139.4289524015
 31
0.0
  0
LINE
  5
BF
330
1F
100
AcDbEntity
  8
0
  6
Continuous
 62
     7
370
    25
100
AcDbLine
 10
892.7915455389
 20
361.9710475985
 30
0.0
 11
874.4189625368
 21
361.9710475985
 31
0.0
  0
LINE
  5
C0
330
1F
100
AcDbEntity
  8
0
  6
Continuous
 62
     7
370
    25
100
AcDbLine
 10
874.4189625368
 20
-139.4289524015
 30
0.0
 11
892.7915455389
 21
-139.4289524015
 31
0.0
  0
LINE
  5
C1
330
1F
100
AcDbEntity
  8
0
  6
Continuous
 62
     7
370
    25
100
AcDbLine
 10
1150.1832603884
 20
361.1245571764
 30
0.0
 11
1150.1283381938
 21
364.2710475985
 31
0.0
  0
LINE
  5
C2
330
1F
100
AcDbEntity
  8
0
  6
Continuous
 62
     7
370
    25
100
AcDbLine
 10
1136.0821698819
 20
364.2710475985
 30
0.0
 11
1136.0268944345
 21
361.1043193382
 31
0.0
  0
LINE
  5
C3
330
1F
100
AcDbEntity
  8
0
  6
Continuous
 62
     7
370
    25
100
AcDbLine
 10
860.1836136412
 20
361.1043193382
 30
0.0
 11
860.1283381938
 21
364.2710475985
 31
0.0
  0
LINE
  5
C4
330
1F
100
AcDbEntity
  8
0
  6
Continuous
 62
     7
370
    25
100
AcDbLine
 10
846.0821698819
 20
364.2710475985
 30
0.0
 11
846.0272476873
 21
361.1245571764
 31
0.0
  0
LINE
  5
C5
330
1F
100
AcDbEntity
  8
0
  6
Continuous
 62
     7
370
    25
100
AcDbLine
 10
1150.1052540379
 20
369.9710475985
 30
0.0
 11
1136.4189625368
 21
369.9710475985
 31
0.0
  0
LINE
  5
C6
330
1F
100
AcDbEntity
  8
0
  6
Continuous
 62
     7
370
    25
100
AcDbLine
 10
859.7915455389
 20
369.9710475985
 30
0.0
 11
846.1052540379
 21
369.9710475985
 31
0.0
  0
SPLINE
  5
C7
330
1F
100
AcDbEntity
  8
0
  6
Continuous
 62
     7
370
    25
100
AcDbSpline
210
0.0
220
0.0
230
1.0
 70
     8
 71
     3
 72
    28
 73
    24
 74
     0
 42
0.00000001
 43
0.00000001
 40
0.0
 40
0.0
 40
0.0
 40
0.0
 40
0.1249999999999952
 40
0.1249999999999952
 40
0.1874999999999941
 40
0.1874999999999941
 40
0.249999999999993
 40
0.249999999999993
 40
0.3749999999999947
 40
0.3749999999999947
 40
0.4374999999999956
 40
0.4374999999999956
 40
0.4999999999999964
 40
0.4999999999999964
 40
0.6250000000000006
 40
0.6250000000000006
 40
0.7500000000000036
 40
0.7500000000000036
 40
0.8125000000000029
 40
0.8125000000000029
 40
0.8750000000000022
 40
0.8750000000000022
 40
1.0
 40
1.0
 40
1.0
 40
1.0
 10
1150.105254037861
 20
364.513345430928
 30
0.0
 10
1150.591012312012
 20
364.413962377433
 30
0.0
 10
1151.011978927236
 20
364.2626995371055
 30
0.0
 10
1151.562232178851
 20
363.997587500616
 30
0.0
 10
1151.731903260932
 20
363.9025908248367
 30
0.0
 10
1152.04431432305
 20
363.7040030928596
 30
0.0
 10
1152.186331673841
 20
363.6007582487774
 30
0.0
 10
1152.56523541866
 20
363.2904657903669
 30
0.0
 10
1152.758511696338
 20
363.0813067464463
 30
0.0
 10
1152.959313155786
 20
362.7841872935826
 30
0.0
 10
1153.011168057678
 20
362.6876446604841
 30
0.0
 10
1153.081992325255
 20
362.5062896680234
 30
0.0
 10
1153.101384006272
 20
362.4209633503265
 30
0.0
 10
1153.111427401713
 20
362.1823473973064
 30
0.0
 10
1153.05441463494
 20
362.0470197613675
 30
0.0
 10
1152.800979170595
 20
361.8178986192476
 30
0.0
 10
1152.608280103978
 20
361.7276339375481
 30
0.0
 10
1152.224850640201
 20
361.6060408705327
 30
0.0
 10
1152.081142384609
 20
361.5676613048164
 30
0.0
 10
1151.761379937726
 20
361.490186979304
 30
0.0
 10
1151.584924185353
 20
361.4510178199592
 30
0.0
 10
1151.017828907748
 20
361.3263702282353
 30
0.0
 10
1150.586739876768
 20
361.2332638225026
 30
0.0
 10
1150.105254037861
 20
361.1064305781684
 30
0.0
  0
LINE
  5
C8
330
1F
100
AcDbEntity
  8
0
  6
Continuous
 62
     7
370
    25
100
AcDbLine
 10
1158.1052540379
 20
111.2710475985
 30
0.0
 11
1158.1052540379
 21
-139.4289524015
 31
0.0
  0
LINE
  5
C9
330
1F
100
AcDbEntity
  8
0
  6
Continuous
 62
     7
370
    25
100
AcDbLine
 10
1158.1052540379
 20
361.9710475985
 30
0.0
 11
1158.1052540379
 21
111.2710475985
 31
0.0
  0
SPLINE
  5
CA
330
1F
100
AcDbEntity
  8
0
  6
Continuous
 62
     7
370
    25
100
AcDbSpline
210
0.0
220
0.0
230
1.0
 70
     8
 71
     3
 72
    26
 73
    22
 74
     0
 42
0.00000001
 43
0.00000001
 40
0.0
 40
0.0
 40
0.0
 40
0.0
 40
0.1249999999999983
 40
0.1249999999999983
 40
0.1874999999999994
 40
0.1874999999999994
 40
0.2500000000000006
 40
0.2500000000000006
 40
0.3749999999999988
 40
0.3749999999999988
 40
0.499999999999997
 40
0.499999999999997
 40
0.6249999999999952
 40
0.6249999999999952
 40
0.6874999999999941
 40
0.6874999999999941
 40
0.749999999999993
 40
0.749999999999993
 40
0.8749999999999966
 40
0.8749999999999966
 40
1.0
 40
1.0
 40
1.0
 40
1.0
 10
1136.418962536846
 20
361.0270910789149
 30
0.0
 10
1136.885494091126
 20
360.9138237116302
 30
0.0
 10
1137.385236973337
 20
360.8126248494503
 30
0.0
 10
1138.183650826629
 20
360.6794878679866
 30
0.0
 10
1138.457975547834
 20
360.6382374166937
 30
0.0
 10
1139.023490096095
 20
360.5623223213321
 30
0.0
 10
1139.316091045691
 20
360.5275428548766
 30
0.0
 10
1140.202072305415
 20
360.4355881034691
 30
0.0
 10
1140.807559367856
 20
360.3900022388484
 30
0.0
 10
1142.048074197129
 20
360.3308039957515
 30
0.0
 10
1142.689287448949
 20
360.3174673946708
 30
0.0
 10
1143.950048521065
 20
360.3250668509945
 30
0.0
 10
1144.574343337751
 20
360.3454669493673
 30
0.0
 10
1145.501595519992
 20
360.400901722381
 30
0.0
 10
1145.810433465299
 20
360.4236904503418
 30
0.0
 10
1146.412494188461
 20
360.4766488594512
 30
0.0
 10
1146.706991295494
 20
360.5068582061572
 30
0.0
 10
1147.571427451186
 20
360.6082050276989
 30
0.0
 10
1148.123175447379
 20
360.6901071028672
 30
0.0
 10
1149.17213843798
 20
360.8813666778542
 30
0.0
 10
1149.657760005144
 20
360.9885514726922
 30
0.0
 10
1150.105254037861
 20
361.1064305781684
 30
0.0
  0
SPLINE
  5
CB
330
1F
100
AcDbEntity
  8
0
  6
Continuous
 62
     7
370
    25
100
AcDbSpline
210
0.0
220
0.0
230
1.0
 70
     8
 71
     3
 72
    32
 73
    28
 74
     0
 42
0.00000001
 43
0.00000001
 40
0.0
 40
0.0
 40
0.0
 40
0.0
 40
0.1250000000000027
 40
0.1250000000000027
 40
0.1875000000000043
 40
0.1875000000000043
 40
0.2500000000000059
 40
0.2500000000000059
 40
0.3750000000000082
 40
0.3750000000000082
 40
0.4375000000000081
 40
0.4375000000000081
 40
0.5000000000000081
 40
0.5000000000000081
 40
0.5625000000000069
 40
0.5625000000000069
 40
0.6250000000000057
 40
0.6250000000000057
 40
0.7500000000000013
 40
0.7500000000000013
 40
0.812500000000001
 40
0.812500000000001
 40
0.8750000000000007
 40
0.8750000000000007
 40
0.9375000000000004
 40
0.9375000000000004
 40
1.0
 40
1.0
 40
1.0
 40
1.0
 10
1136.418962536846
 20
361.0270910789148
 30
0.0
 10
1135.889525296171
 20
361.1556310712125
 30
0.0
 10
1135.416083415723
 20
361.2427887451152
 30
0.0
 10
1134.792531897585
 20
361.3538485093455
 30
0.0
 10
1134.599194737172
 20
361.3874848029279
 30
0.0
 10
1134.243064372538
 20
361.4545593083637
 30
0.0
 10
1134.082254188076
 20
361.4876906280343
 30
0.0
 10
1133.655616910785
 20
361.5941821871447
 30
0.0
 10
1133.442696821079
 20
361.6754938259553
 30
0.0
 10
1133.231896320219
 20
361.8425211150151
 30
0.0
 10
1133.180446882774
 20
361.9054425022343
 30
0.0
 10
1133.11564399422
 20
362.0452445160177
 30
0.0
 10
1133.101847734316
 20
362.1224274280811
 30
0.0
 10
1133.110071279818
 20
362.291473927422
 30
0.0
 10
1133.132088082592
 20
362.3833313632258
 30
0.0
 10
1133.211769565968
 20
362.5805067530536
 30
0.0
 10
1133.269685854737
 20
362.6858952360885
 30
0.0
 10
1133.492250014541
 20
363.0110045847851
 30
0.0
 10
1133.705566410407
 20
363.2421086934241
 30
0.0
 10
1134.124538874715
 20
363.5856959751085
 30
0.0
 10
1134.281412027519
 20
363.6998349675564
 30
0.0
 10
1134.623865018755
 20
363.9174011151272
 30
0.0
 10
1134.810025592275
 20
364.0213973068309
 30
0.0
 10
1135.213570795974
 20
364.2141778061243
 30
0.0
 10
1135.430938700338
 20
364.3029971171709
 30
0.0
 10
1135.900014594392
 20
364.4583652505235
 30
0.0
 10
1136.152294655859
 20
364.5248851806689
 30
0.0
 10
1136.418962536846
 20
364.5746435720432
 30
0.0
  0
SPLINE
  5
CC
330
1F
100
AcDbEntity
  8
0
  6
Continuous
 62
     7
370
    25
100
AcDbSpline
210
0.0
220
0.0
230
1.0
 70
     8
 71
     3
 72
    32
 73
    28
 74
     0
 42
0.00000001
 43
0.00000001
 40
0.0
 40
0.0
 40
0.0
 40
0.0
 40
0.1250000000000027
 40
0.1250000000000027
 40
0.1875000000000043
 40
0.1875000000000043
 40
0.2500000000000059
 40
0.2500000000000059
 40
0.3750000000000082
 40
0.3750000000000082
 40
0.4375000000000081
 40
0.4375000000000081
 40
0.5000000000000081
 40
0.5000000000000081
 40
0.5625000000000069
 40
0.5625000000000069
 40
0.6250000000000057
 40
0.6250000000000057
 40
0.7500000000000013
 40
0.7500000000000013
 40
0.812500000000001
 40
0.812500000000001
 40
0.8750000000000007
 40
0.8750000000000007
 40
0.9375000000000004
 40
0.9375000000000004
 40
1.0
 40
1.0
 40
1.0
 40
1.0
 10
859.7915455388764
 20
361.0270910789148
 30
0.0
 10
860.3209827795514
 20
361.1556310712125
 30
0.0
 10
860.7944246599997
 20
361.2427887451152
 30
0.0
 10
861.4179761781377
 20
361.3538485093455
 30
0.0
 10
861.6113133385498
 20
361.3874848029279
 30
0.0
 10
861.9674437031844
 20
361.4545593083637
 30
0.0
 10
862.1282538876461
 20
361.4876906280343
 30
0.0
 10
862.5548911649377
 20
361.5941821871447
 30
0.0
 10
862.7678112546432
 20
361.6754938259553
 30
0.0
 10
862.9786117555033
 20
361.8425211150151
 30
0.0
 10
863.0300611929484
 20
361.9054425022343
 30
0.0
 10
863.0948640815029
 20
362.0452445160177
 30
0.0
 10
863.1086603414062
 20
362.1224274280811
 30
0.0
 10
863.1004367959042
 20
362.291473927422
 30
0.0
 10
863.0784199931303
 20
362.3833313632258
 30
0.0
 10
862.9987385097548
 20
362.5805067530536
 30
0.0
 10
862.9408222209853
 20
362.6858952360885
 30
0.0
 10
862.7182580611816
 20
363.0110045847851
 30
0.0
 10
862.5049416653158
 20
363.2421086934241
 30
0.0
 10
862.0859692010068
 20
363.5856959751085
 30
0.0
 10
861.9290960482032
 20
363.6998349675564
 30
0.0
 10
861.5866430569677
 20
363.9174011151272
 30
0.0
 10
861.400482483447
 20
364.0213973068309
 30
0.0
 10
860.9969372797491
 20
364.2141778061243
 30
0.0
 10
860.7795693753844
 20
364.3029971171709
 30
0.0
 10
860.3104934813308
 20
364.4583652505235
 30
0.0
 10
860.0582134198638
 20
364.5248851806689
 30
0.0
 10
859.7915455388764
 20
364.5746435720432
 30
0.0
  0
SPLINE
  5
CD
330
1F
100
AcDbEntity
  8
0
  6
Continuous
 62
     7
370
    25
100
AcDbSpline
210
0.0
220
0.0
230
1.0
 70
     8
 71
     3
 72
    26
 73
    22
 74
     0
 42
0.00000001
 43
0.00000001
 40
0.0
 40
0.0
 40
0.0
 40
0.0
 40
0.1249999999999983
 40
0.1249999999999983
 40
0.1874999999999994
 40
0.1874999999999994
 40
0.2500000000000006
 40
0.2500000000000006
 40
0.3749999999999988
 40
0.3749999999999988
 40
0.499999999999997
 40
0.499999999999997
 40
0.6249999999999952
 40
0.6249999999999952
 40
0.6874999999999941
 40
0.6874999999999941
 40
0.749999999999993
 40
0.749999999999993
 40
0.8749999999999966
 40
0.8749999999999966
 40
1.0
 40
1.0
 40
1.0
 40
1.0
 10
859.7915455388764
 20
361.0270910789149
 30
0.0
 10
859.3250139845969
 20
360.9138237116302
 30
0.0
 10
858.8252711023858
 20
360.8126248494503
 30
0.0
 10
858.0268572490932
 20
360.6794878679866
 30
0.0
 10
857.7525325278884
 20
360.6382374166937
 30
0.0
 10
857.1870179796281
 20
360.5623223213321
 30
0.0
 10
856.8944170300317
 20
360.5275428548766
 30
0.0
 10
856.0084357703075
 20
360.4355881034691
 30
0.0
 10
855.402948707866
 20
360.3900022388484
 30
0.0
 10
854.1624338785937
 20
360.3308039957515
 30
0.0
 10
853.5212206267737
 20
360.3174673946708
 30
0.0
 10
852.2604595546577
 20
360.3250668509945
 30
0.0
 10
851.6361647379716
 20
360.3454669493673
 30
0.0
 10
850.70891255573
 20
360.400901722381
 30
0.0
 10
850.4000746104236
 20
360.4236904503418
 30
0.0
 10
849.7980138872618
 20
360.4766488594512
 30
0.0
 10
849.5035167802288
 20
360.5068582061572
 30
0.0
 10
848.6390806245361
 20
360.6082050276989
 30
0.0
 10
848.0873326283432
 20
360.6901071028672
 30
0.0
 10
847.0383696377428
 20
360.8813666778542
 30
0.0
 10
846.5527480705788
 20
360.9885514726922
 30
0.0
 10
846.1052540378612
 20
361.1064305781684
 30
0.0
  0
LINE
  5
CE
330
1F
100
AcDbEntity
  8
0
  6
Continuous
 62
     7
370
    25
100
AcDbLine
 10
838.1052540379
 20
-139.4289524015
 30
0.0
 11
838.1052540379
 21
361.9710475985
 31
0.0
  0
SPLINE
  5
CF
330
1F
100
AcDbEntity
  8
0
  6
Continuous
 62
     7
370
    25
100
AcDbSpline
210
0.0
220
0.0
230
1.0
 70
     8
 71
     3
 72
    28
 73
    24
 74
     0
 42
0.00000001
 43
0.00000001
 40
0.0
 40
0.0
 40
0.0
 40
0.0
 40
0.1249999999999952
 40
0.1249999999999952
 40
0.1874999999999941
 40
0.1874999999999941
 40
0.249999999999993
 40
0.249999999999993
 40
0.3749999999999947
 40
0.3749999999999947
 40
0.4374999999999956
 40
0.4374999999999956
 40
0.4999999999999964
 40
0.4999999999999964
 40
0.6250000000000006
 40
0.6250000000000006
 40
0.7500000000000036
 40
0.7500000000000036
 40
0.8125000000000029
 40
0.8125000000000029
 40
0.8750000000000022
 40
0.8750000000000022
 40
1.0
 40
1.0
 40
1.0
 40
1.0
 10
846.1052540378612
 20
364.513345430928
 30
0.0
 10
845.6194957637099
 20
364.413962377433
 30
0.0
 10
845.1985291484864
 20
364.2626995371055
 30
0.0
 10
844.6482758968713
 20
363.997587500616
 30
0.0
 10
844.4786048147903
 20
363.9025908248367
 30
0.0
 10
844.1661937526718
 20
363.7040030928596
 30
0.0
 10
844.0241764018812
 20
363.6007582487774
 30
0.0
 10
843.6452726570623
 20
363.2904657903669
 30
0.0
 10
843.4519963793847
 20
363.0813067464463
 30
0.0
 10
843.2511949199361
 20
362.7841872935826
 30
0.0
 10
843.1993400180442
 20
362.6876446604841
 30
0.0
 10
843.1285157504677
 20
362.5062896680234
 30
0.0
 10
843.1091240694501
 20
362.4209633503265
 30
0.0
 10
843.0990806740092
 20
362.1823473973064
 30
0.0
 10
843.1560934407825
 20
362.0470197613675
 30
0.0
 10
843.4095289051274
 20
361.8178986192476
 30
0.0
 10
843.6022279717447
 20
361.7276339375481
 30
0.0
 10
843.9856574355211
 20
361.6060408705327
 30
0.0
 10
844.1293656911135
 20
361.5676613048164
 30
0.0
 10
844.4491281379962
 20
361.490186979304
 30
0.0
 10
844.6255838903701
 20
361.4510178199592
 30
0.0
 10
845.1926791679747
 20
361.3263702282353
 30
0.0
 10
845.6237681989542
 20
361.2332638225026
 30
0.0
 10
846.1052540378612
 20
361.1064305781684
 30
0.0
  0
SPLINE
  5
D0
330
1F
100
AcDbEntity
  8
0
  6
Continuous
 62
     7
370
    25
100
AcDbSpline
210
0.0
220
0.0
230
1.0
 70
     8
 71
     3
 72
    26
 73
    22
 74
     0
 42
0.00000001
 43
0.00000001
 40
0.0
 40
0.0
 40
0.0
 40
0.0
 40
0.1250000000000006
 40
0.1250000000000006
 40
0.1875000000000008
 40
0.1875000000000008
 40
0.2500000000000011
 40
0.2500000000000011
 40
0.3750000000000011
 40
0.3750000000000011
 40
0.5000000000000011
 40
0.5000000000000011
 40
0.6250000000000011
 40
0.6250000000000011
 40
0.6875000000000009
 40
0.6875000000000009
 40
0.7500000000000008
 40
0.7500000000000008
 40
0.8750000000000004
 40
0.8750000000000004
 40
1.0
 40
1.0
 40
1.0
 40
1.0
 10
1150.105254037861
 20
364.513345430928
 30
0.0
 10
1149.65592647604
 20
364.6052749923775
 30
0.0
 10
1149.171511096331
 20
364.6859974463596
 30
0.0
 10
1148.393849615288
 20
364.7917184393776
 30
0.0
 10
1148.12606660932
 20
364.8243793452762
 30
0.0
 10
1147.572959079211
 20
364.8845623024914
 30
0.0
 10
1147.286183170316
 20
364.9121854022866
 30
0.0
 10
1146.415709661614
 20
364.985794900025
 30
0.0
 10
1145.818663991735
 20
365.0231100865564
 30
0.0
 10
1144.591532928503
 20
365.0752677807581
 30
0.0
 10
1143.955090307019
 20
365.0899910290199
 30
0.0
 10
1142.697286532423
 20
365.095466792844
 30
0.0
 10
1142.07198567524
 20
365.0866167630015
 30
0.0
 10
1141.139471539184
 20
365.0557029760417
 30
0.0
 10
1140.827908022915
 20
365.0423340679348
 30
0.0
 10
1140.217677276421
 20
365.0099741953219
 30
0.0
 10
1139.918491353032
 20
364.9910035813967
 30
0.0
 10
1139.038255064448
 20
364.9257982320244
 30
0.0
 10
1138.474373709598
 20
364.8713562329929
 30
0.0
 10
1137.393749694296
 20
364.7388893150737
 30
0.0
 10
1136.887346888132
 20
364.6620408685553
 30
0.0
 10
1136.418962536846
 20
364.5746435720432
 30
0.0
  0
SPLINE
  5
D1
330
1F
100
AcDbEntity
  8
0
  6
Continuous
 62
     7
370
    25
100
AcDbSpline
210
0.0
220
0.0
230
1.0
 70
     8
 71
     3
 72
    26
 73
    22
 74
     0
 42
0.00000001
 43
0.00000001
 40
0.0
 40
0.0
 40
0.0
 40
0.0
 40
0.1250000000000006
 40
0.1250000000000006
 40
0.1875000000000008
 40
0.1875000000000008
 40
0.2500000000000011
 40
0.2500000000000011
 40
0.3750000000000011
 40
0.3750000000000011
 40
0.5000000000000011
 40
0.5000000000000011
 40
0.6250000000000011
 40
0.6250000000000011
 40
0.6875000000000009
 40
0.6875000000000009
 40
0.7500000000000008
 40
0.7500000000000008
 40
0.8750000000000004
 40
0.8750000000000004
 40
1.0
 40
1.0
 40
1.0
 40
1.0
 10
846.1052540378612
 20
364.513345430928
 30
0.0
 10
846.554581599682
 20
364.6052749923775
 30
0.0
 10
847.0389969793916
 20
364.6859974463596
 30
0.0
 10
847.8166584604342
 20
364.7917184393776
 30
0.0
 10
848.0844414664028
 20
364.8243793452762
 30
0.0
 10
848.6375489965111
 20
364.8845623024914
 30
0.0
 10
848.9243249054067
 20
364.9121854022866
 30
0.0
 10
849.794798414108
 20
364.985794900025
 30
0.0
 10
850.3918440839877
 20
365.0231100865564
 30
0.0
 10
851.61897514722
 20
365.0752677807581
 30
0.0
 10
852.2554177687038
 20
365.0899910290199
 30
0.0
 10
853.5132215432998
 20
365.095466792844
 30
0.0
 10
854.1385224004824
 20
365.0866167630015
 30
0.0
 10
855.0710365365386
 20
365.0557029760417
 30
0.0
 10
855.3826000528071
 20
365.0423340679348
 30
0.0
 10
855.9928307993019
 20
365.0099741953219
 30
0.0
 10
856.2920167226903
 20
364.9910035813967
 30
0.0
 10
857.1722530112746
 20
364.9257982320244
 30
0.0
 10
857.7361343661242
 20
364.8713562329929
 30
0.0
 10
858.8167583814261
 20
364.7388893150737
 30
0.0
 10
859.32316118759
 20
364.6620408685553
 30
0.0
 10
859.7915455388764
 20
364.5746435720432
 30
0.0
  0
LINE
  5
D2
330
1F
100
AcDbEntity
  8
0
  6
Continuous
 62
     7
370
    25
100
AcDbLine
 10
1150.1283381938
 20
364.2710475985
 30
0.0
 11
1136.0821698819
 21
364.2710475985
 31
0.0
  0
LINE
  5
D3
330
1F
100
AcDbEntity
  8
0
  6
Continuous
 62
     7
370
    25
100
AcDbLine
 10
846.0821698819
 20
364.2710475985
 30
0.0
 11
860.1283381938
 21
364.2710475985
 31
0.0
  0
LINE
  5
D4
330
1F
100
AcDbEntity
  8
0
  6
Continuous
 62
     1
370
    25
100
AcDbLine
 10
1150.1052540379
 20
-147.4289524015
 30
0.0
 11
1150.1052540379
 21
361.1064305782
 31
0.0
  0
LINE
  5
D5
330
1F
100
AcDbEntity
  8
0
  6
Continuous
 62
     1
370
    25
100
AcDbLine
 10
1150.1052540379
 20
364.5133454309
 30
0.0
 11
1150.1052540379
 21
369.9710475985
 31
0.0
  0
LINE
  5
D6
330
1F
100
AcDbEntity
  8
0
  6
Continuous
 62
     1
370
    25
100
AcDbLine
 10
1136.4189625368
 20
361.0270910789
 30
0.0
 11
1136.4189625368
 21
-147.4289524015
 31
0.0
  0
LINE
  5
D7
330
1F
100
AcDbEntity
  8
0
  6
Continuous
 62
     1
370
    25
100
AcDbLine
 10
1136.4189625368
 20
369.9710475985
 30
0.0
 11
1136.4189625368
 21
364.574643572
 31
0.0
  0
LINE
  5
D8
330
1F
100
AcDbEntity
  8
0
  6
Continuous
 62
     1
370
    25
100
AcDbLine
 10
1130.7621082874
 20
111.2710475985
 30
0.0
 11
1130.7621082874
 21
367.627901848
 31
0.0
  0
LINE
  5
D9
330
1F
100
AcDbEntity
  8
0
  6
Continuous
 62
     1
370
    25
100
AcDbLine
 10
1130.7621082874
 20
-145.0858066509
 30
0.0
 11
1130.7621082874
 21
111.2710475985
 31
0.0
  0
LINE
  5
DA
330
1F
100
AcDbEntity
  8
0
  6
Continuous
 62
     1
370
    25
100
AcDbLine
 10
865.4483997884
 20
367.627901848
 30
0.0
 11
865.4483997884
 21
-145.0858066509
 31
0.0
  0
LINE
  5
DB
330
1F
100
AcDbEntity
  8
0
  6
Continuous
 62
     1
370
    25
100
AcDbLine
 10
859.7915455389
 20
364.574643572
 30
0.0
 11
859.7915455389
 21
369.9710475985
 31
0.0
  0
LINE
  5
DC
330
1F
100
AcDbEntity
  8
0
  6
Continuous
 62
     1
370
    25
100
AcDbLine
 10
859.7915455389
 20
-147.4289524015
 30
0.0
 11
859.7915455389
 21
361.0270910789
 31
0.0
  0
LINE
  5
DD
330
1F
100
AcDbEntity
  8
0
  6
Continuous
 62
     1
370
    25
100
AcDbLine
 10
846.1052540379
 20
361.1064305782
 30
0.0
 11
846.1052540379
 21
-147.4289524015
 31
0.0
  0
LINE
  5
DE
330
1F
100
AcDbEntity
  8
0
  6
Continuous
 62
     1
370
    25
100
AcDbLine
 10
846.1052540379
 20
369.9710475985
 30
0.0
 11
846.1052540379
 21
364.5133454309
 31
0.0
  0
LINE
  5
DF
330
1F
100
AcDbEntity
  8
0
  6
Continuous
 62
     1
370
    25
100
AcDbLine
 10
1058.1052540379
 20
369.2710475985
 30
0.0
 11
1058.1052540379
 21
-146.7289524015
 31
0.0
  0
LINE
  5
E0
330
1F
100
AcDbEntity
  8
0
  6
Continuous
 62
     1
370
    25
100
AcDbLine
 10
1092.1813443676
 20
111.2710475985
 30
0.0
 11
1092.1813443676
 21
366.3467185167
 31
0.0
  0
LINE
  5
E1
330
1F
100
AcDbEntity
  8
0
  6
Continuous
 62
     1
370
    25
100
AcDbLine
 10
1092.1813443676
 20
-143.8046233196
 30
0.0
 11
1092.1813443676
 21
111.2710475985
 31
0.0
  0
LINE
  5
E2
330
1F
100
AcDbEntity
  8
0
  6
Continuous
 62
     1
370
    25
100
AcDbLine
 10
938.1052540379
 20
369.2710475985
 30
0.0
 11
938.1052540379
 21
-146.7289524015
 31
0.0
  0
LINE
  5
E3
330
1F
100
AcDbEntity
  8
0
  6
Continuous
 62
     1
370
    25
100
AcDbLine
 10
904.0291637081
 20
366.3467185167
 30
0.0
 11
904.0291637081
 21
-143.8046233196
 31
0.0
  0
LINE
  5
E4
330
1F
100
AcDbEntity
  8
0
  6
Continuous
 62
     1
370
    25
100
AcDbLine
 10
1127.4483997884
 20
364.3141933491
 30
0.0
 11
1127.4483997884
 21
-141.772098152
 31
0.0
  0
LINE
  5
E5
330
1F
100
AcDbEntity
  8
0
  6
Continuous
 62
     1
370
    25
100
AcDbLine
 10
868.7621082874
 20
111.2710475985
 30
0.0
 11
868.7621082874
 21
364.3141933491
 31
0.0
  0
LINE
  5
E6
330
1F
100
AcDbEntity
  8
0
  6
Continuous
 62
     1
370
    25
100
AcDbLine
 10
868.7621082874
 20
-141.772098152
 30
0.0
 11
868.7621082874
 21
111.2710475985
 31
0.0
  0
LINE
  5
E7
330
1F
100
AcDbEntity
  8
0
  6
Continuous
 62
     1
370
    25
100
AcDbLine
 10
1098.6212842955
 20
363.5693069374
 30
0.0
 11
1098.6212842955
 21
-141.0272117403
 31
0.0
  0
LINE
  5
E8
330
1F
100
AcDbEntity
  8
0
  6
Continuous
 62
     1
370
    25
100
AcDbLine
 10
897.5892237803
 20
111.2710475985
 30
0.0
 11
897.5892237803
 21
363.5693069374
 31
0.0
  0
LINE
  5
E9
330
1F
100
AcDbEntity
  8
0
  6
Continuous
 62
     1
370
    25
100
AcDbLine
 10
897.5892237803
 20
-141.0272117403
 30
0.0
 11
897.5892237803
 21
111.2710475985
 31
0.0
  0
LINE
  5
EA
330
1F
100
AcDbEntity
  8
0
  6
Continuous
 62
     1
370
    25
100
AcDbLine
 10
1121.7915455389
 20
-139.4289524015
 30
0.0
 11
1121.7915455389
 21
361.9710475985
 31
0.0
  0
LINE
  5
EB
330
1F
100
AcDbEntity
  8
0
  6
Continuous
 62
     1
370
    25
100
AcDbLine
 10
874.4189625368
 20
361.9710475985
 30
0.0
 11
874.4189625368
 21
-139.4289524015
 31
0.0
  0
LINE
  5
EC
330
1F
100
AcDbEntity
  8
0
  6
Continuous
 62
     1
370
    25
100
AcDbLine
 10
1103.4189625368
 20
361.9710475985
 30
0.0
 11
1103.4189625368
 21
-139.4289524015
 31
0.0
  0
LINE
  5
ED
330
1F
100
AcDbEntity
  8
0
  6
Continuous
 62
     1
370
    25
100
AcDbLine
 10
892.7915455389
 20
-139.4289524015
 30
0.0
 11
892.7915455389
 21
361.9710475985
 31
0.0
  0
ARC
  5
EE
330
1F
100
AcDbEntity
  8
0
  6
Continuous
 62
     7
370
    25
100
AcDbCircle
 10
372.134238208
 20
1034.6839837887
 30
0.0
 40
8.0
100
AcDbArc
 50
0.0
 51
90.0
  0
ARC
  5
EF
330
1F
100
AcDbEntity
  8
0
  6
Continuous
 62
     7
370
    25
100
AcDbCircle
 10
-129.265761792
 20
1034.6839837887
 30
0.0
 40
8.0
100
AcDbArc
 50
90.0
 51
180.0
  0
ARC
  5
F0
330
1F
100
AcDbEntity
  8
0
  6
Continuous
 62
     7
370
    25
100
AcDbCircle
 10
372.134238208
 20
1020.9976922877
 30
0.0
 40
8.0
100
AcDbArc
 50
315.0
 51
0.0
  0
ARC
  5
F1
330
1F
100
AcDbEntity
  8
0
  6
Continuous
 62
     7
370
    25
100
AcDbCircle
 10
-129.265761792
 20
1020.9976922877
 30
0.0
 40
8.0
100
AcDbArc
 50
180.0
 51
225.0
  0
ARC
  5
F2
330
1F
100
AcDbEntity
  8
0
  6
Continuous
 62
     7
370
    25
100
AcDbCircle
 10
372.134238208
 20
744.3702752897
 30
0.0
 40
8.0
100
AcDbArc
 50
0.0
 51
45.0
  0
ARC
  5
F3
330
1F
100
AcDbEntity
  8
0
  6
Continuous
 62
     7
370
    25
100
AcDbCircle
 10
-129.265761792
 20
744.3702752897
 30
0.0
 40
8.0
100
AcDbArc
 50
135.0
 51
180.0
  0
ARC
  5
F4
330
1F
100
AcDbEntity
  8
0
  6
Continuous
 62
     7
370
    25
100
AcDbCircle
 10
-129.265761792
 20
730.6839837887
 30
0.0
 40
8.0
100
AcDbArc
 50
180.0
 51
270.0
  0
ARC
  5
F5
330
1F
100
AcDbEntity
  8
0
  6
Continuous
 62
     7
370
    25
100
AcDbCircle
 10
372.134238208
 20
730.6839837887
 30
0.0
 40
8.0
100
AcDbArc
 50
270.0
 51
0.0
  0
ARC
  5
F6
330
1F
100
AcDbEntity
  8
0
  6
Continuous
 62
     7
370
    25
100
AcDbCircle
 10
63.434238208
 20
942.6839837887
 30
0.0
 40
200.0
100
AcDbArc
 50
170.1900599512
 51
180.0
  0
ARC
  5
F7
330
1F
100
AcDbEntity
  8
0
  6
Continuous
 62
     7
370
    25
100
AcDbCircle
 10
179.434238208
 20
942.6839837887
 30
0.0
 40
200.0
100
AcDbArc
 50
0.0
 51
9.8099400488
  0
LINE
  5
F8
330
1F
100
AcDbEntity
  8
0
  6
Continuous
 62
     7
370
    25
100
AcDbLine
 10
-136.565761792
 20
942.6839837887
 30
0.0
 11
-136.565761792
 21
822.6839837887
 31
0.0
  0
LINE
  5
F9
330
1F
100
AcDbEntity
  8
0
  6
Continuous
 62
     7
370
    25
100
AcDbLine
 10
379.434238208
 20
822.6839837887
 30
0.0
 11
379.434238208
 21
942.6839837887
 31
0.0
  0
ARC
  5
FA
330
1F
100
AcDbEntity
  8
0
  6
Continuous
 62
     7
370
    25
100
AcDbCircle
 10
63.434238208
 20
822.6839837887
 30
0.0
 40
200.0
100
AcDbArc
 50
180.0
 51
189.8099400488
  0
ARC
  5
FB
330
1F
100
AcDbEntity
  8
0
  6
Continuous
 62
     7
370
    25
100
AcDbCircle
 10
179.434238208
 20
822.6839837887
 30
0.0
 40
200.0
100
AcDbArc
 50
350.1900599512
 51
0.0
  0
LINE
  5
FC
330
1F
100
AcDbEntity
  8
0
  6
Continuous
 62
     7
370
    25
100
AcDbLine
 10
-134.9226160415
 20
1015.3408380382
 30
0.0
 11
-131.6089075425
 21
1012.0271295392
 31
0.0
  0
LINE
  5
FD
330
1F
100
AcDbEntity
  8
0
  6
Continuous
 62
     7
370
    25
100
AcDbLine
 10
374.4773839585
 20
1012.0271295392
 30
0.0
 11
377.7910924575
 21
1015.3408380382
 31
0.0
  0
LINE
  5
FE
330
1F
100
AcDbEntity
  8
0
  6
Continuous
 62
     7
370
    25
100
AcDbLine
 10
377.7910924575
 20
750.0271295392
 30
0.0
 11
374.4773839585
 21
753.3408380382
 31
0.0
  0
LINE
  5
FF
330
1F
100
AcDbEntity
  8
0
  6
Continuous
 62
     7
370
    25
100
AcDbLine
 10
-131.6089075425
 20
753.3408380382
 30
0.0
 11
-134.9226160415
 21
750.0271295392
 31
0.0
  0
ARC
  5
100
330
1F
100
AcDbEntity
  8
0
  6
Continuous
 62
     7
370
    25
100
AcDbCircle
 10
361.7292338073
 20
974.2043673437
 30
0.0
 40
15.00000000000005
100
AcDbArc
 50
9.8099400488
 51
36.8491150082
  0
ARC
  5
101
330
1F
100
AcDbEntity
  8
0
  6
Continuous
 62
     7
370
    25
100
AcDbCircle
 10
-118.8607573913
 20
974.2043673437
 30
0.0
 40
15.00000000000003
100
AcDbArc
 50
143.1508849918
 51
170.1900599512
  0
ARC
  5
102
330
1F
100
AcDbEntity
  8
0
  6
Continuous
 62
     7
370
    25
100
AcDbCircle
 10
361.7292338073
 20
791.1636002337
 30
0.0
 40
14.99999999999996
100
AcDbArc
 50
323.1508849918
 51
350.1900599512
  0
ARC
  5
103
330
1F
100
AcDbEntity
  8
0
  6
Continuous
 62
     7
370
    25
100
AcDbCircle
 10
-118.8607573913
 20
791.1636002337
 30
0.0
 40
14.99999999999996
100
AcDbArc
 50
189.8099400488
 51
216.8491150082
  0
ARC
  5
104
330
1F
100
AcDbEntity
  8
0
  6
Continuous
 62
     7
370
    25
100
AcDbCircle
 10
-137.265761792
 20
1006.3702752897
 30
0.0
 40
8.0
100
AcDbArc
 50
0.0
 51
45.0
  0
ARC
  5
105
330
1F
100
AcDbEntity
  8
0
  6
Continuous
 62
     7
370
    25
100
AcDbCircle
 10
380.134238208
 20
1006.3702752897
 30
0.0
 40
8.0
100
AcDbArc
 50
135.0
 51
180.0
  0
ARC
  5
106
330
1F
100
AcDbEntity
  8
0
  6
Continuous
 62
     7
370
    25
100
AcDbCircle
 10
-137.265761792
 20
758.9976922877
 30
0.0
 40
8.0
100
AcDbArc
 50
315.0
 51
0.0
  0
ARC
  5
107
330
1F
100
AcDbEntity
  8
0
  6
Continuous
 62
     7
370
    25
100
AcDbCircle
 10
380.134238208
 20
758.9976922877
 30
0.0
 40
8.0
100
AcDbArc
 50
180.0
 51
225.0
  0
ARC
  5
108
330
1F
100
AcDbEntity
  8
0
  6
Continuous
 62
     7
370
    25
100
AcDbCircle
 10
-137.265761792
 20
987.9976922877
 30
0.0
 40
8.0
100
AcDbArc
 50
323.1508849918
 51
0.0
  0
ARC
  5
109
330
1F
100
AcDbEntity
  8
0
  6
Continuous
 62
     7
370
    25
100
AcDbCircle
 10
380.134238208
 20
987.9976922877
 30
0.0
 40
8.0
100
AcDbArc
 50
180.0
 51
216.8491150082
  0
ARC
  5
10A
330
1F
100
AcDbEntity
  8
0
  6
Continuous
 62
     7
370
    25
100
AcDbCircle
 10
-137.265761792
 20
777.3702752897
 30
0.0
 40
8.0
100
AcDbArc
 50
0.0
 51
36.8491150082
  0
ARC
  5
10B
330
1F
100
AcDbEntity
  8
0
  6
Continuous
 62
     7
370
    25
100
AcDbCircle
 10
380.134238208
 20
777.3702752897
 30
0.0
 40
8.0
100
AcDbArc
 50
143.1508849918
 51
180.0
  0
LINE
  5
10C
330
1F
100
AcDbEntity
  8
0
  6
Continuous
 62
     7
370
    25
100
AcDbLine
 10
-129.265761792
 20
1006.3702752897
 30
0.0
 11
-129.265761792
 21
987.9976922877
 31
0.0
  0
LINE
  5
10D
330
1F
100
AcDbEntity
  8
0
  6
Continuous
 62
     7
370
    25
100
AcDbLine
 10
372.134238208
 20
987.9976922877
 30
0.0
 11
372.134238208
 21
1006.3702752897
 31
0.0
  0
LINE
  5
10E
330
1F
100
AcDbEntity
  8
0
  6
Continuous
 62
     7
370
    25
100
AcDbLine
 10
-129.265761792
 20
777.3702752897
 30
0.0
 11
-129.265761792
 21
758.9976922877
 31
0.0
  0
LINE
  5
10F
330
1F
100
AcDbEntity
  8
0
  6
Continuous
 62
     7
370
    25
100
AcDbLine
 10
372.134238208
 20
758.9976922877
 30
0.0
 11
372.134238208
 21
777.3702752897
 31
0.0
  0
LINE
  5
110
330
1F
100
AcDbEntity
  8
0
  6
Continuous
 62
     7
370
    25
100
AcDbLine
 10
-137.265761792
 20
1034.6839837887
 30
0.0
 11
-137.265761792
 21
1020.9976922877
 31
0.0
  0
LINE
  5
111
330
1F
100
AcDbEntity
  8
0
  6
Continuous
 62
     7
370
    25
100
AcDbLine
 10
380.134238208
 20
1020.9976922877
 30
0.0
 11
380.134238208
 21
1034.6839837887
 31
0.0
  0
LINE
  5
112
330
1F
100
AcDbEntity
  8
0
  6
Continuous
 62
     7
370
    25
100
AcDbLine
 10
-137.265761792
 20
744.3702752897
 30
0.0
 11
-137.265761792
 21
730.6839837887
 31
0.0
  0
LINE
  5
113
330
1F
100
AcDbEntity
  8
0
  6
Continuous
 62
     7
370
    25
100
AcDbLine
 10
380.134238208
 20
730.6839837887
 30
0.0
 11
380.134238208
 21
744.3702752897
 31
0.0
  0
LINE
  5
114
330
1F
100
AcDbEntity
  8
0
  6
Continuous
 62
     7
370
    25
100
AcDbLine
 10
68.8701985336
 20
1020.9976922877
 30
0.0
 11
173.9982778824
 21
1020.9976922877
 31
0.0
  0
SPLINE
  5
115
330
1F
100
AcDbEntity
  8
0
  6
Continuous
 62
     7
370
    25
100
AcDbSpline
210
0.0
220
0.0
230
1.0
 70
     8
 71
     3
 72
    26
 73
    22
 74
     0
 42
0.00000001
 43
0.00000001
 40
0.0
 40
0.0
 40
0.0
 40
0.0
 40
0.1250000000000006
 40
0.1250000000000006
 40
0.1875000000000008
 40
0.1875000000000008
 40
0.2500000000000011
 40
0.2500000000000011
 40
0.3750000000000011
 40
0.3750000000000011
 40
0.5000000000000011
 40
0.5000000000000011
 40
0.6250000000000011
 40
0.6250000000000011
 40
0.6875000000000009
 40
0.6875000000000009
 40
0.7500000000000008
 40
0.7500000000000008
 40
0.8750000000000004
 40
0.8750000000000004
 40
1.0
 40
1.0
 40
1.0
 40
1.0
 10
68.5756666365429
 20
1034.683983788683
 30
0.0
 10
69.01609574175872
 20
1034.234656226862
 30
0.0
 10
69.40849775136984
 20
1033.750240847153
 30
0.0
 10
69.92704865622815
 20
1032.97257936611
 30
0.0
 10
70.08814702031529
 20
1032.704796360142
 30
0.0
 10
70.38623844666608
 20
1032.151688830033
 30
0.0
 10
70.52373993713287
 20
1031.864912921138
 30
0.0
 10
70.89139020747753
 20
1030.994439412436
 30
0.0
 10
71.07950825714109
 20
1030.397393742557
 30
0.0
 10
71.34306270729718
 20
1029.170262679325
 30
0.0
 10
71.41789931271516
 20
1028.533820057841
 30
0.0
 10
71.4456953073779
 20
1027.276016283245
 30
0.0
 10
71.40066790125465
 20
1026.650715426062
 30
0.0
 10
71.24418419423459
 20
1025.718201290006
 30
0.0
 10
71.17659125014758
 20
1025.406637773737
 30
0.0
 10
71.01346824576501
 20
1024.796407027242
 30
0.0
 10
70.91804008944602
 20
1024.497221103854
 30
0.0
 10
70.59127580178554
 20
1023.61698481527
 30
0.0
 10
70.31981351689
 20
1023.05310346042
 30
0.0
 10
69.6669303143579
 20
1021.972479445118
 30
0.0
 10
69.29136193010486
 20
1021.466076638955
 30
0.0
 10
68.8701985335701
 20
1020.997692287668
 30
0.0
  0
LINE
  5
116
330
1F
100
AcDbEntity
  8
0
  6
Continuous
 62
     7
370
    25
100
AcDbLine
 10
174.2928097795
 20
1034.6839837887
 30
0.0
 11
68.5756666365
 21
1034.6839837887
 31
0.0
  0
SPLINE
  5
117
330
1F
100
AcDbEntity
  8
0
  6
Continuous
 62
     7
370
    25
100
AcDbSpline
210
0.0
220
0.0
230
1.0
 70
     8
 71
     3
 72
    26
 73
    22
 74
     0
 42
0.00000001
 43
0.00000001
 40
0.0
 40
0.0
 40
0.0
 40
0.0
 40
0.1250000000000006
 40
0.1250000000000006
 40
0.1875000000000008
 40
0.1875000000000008
 40
0.2500000000000011
 40
0.2500000000000011
 40
0.3750000000000011
 40
0.3750000000000011
 40
0.5000000000000011
 40
0.5000000000000011
 40
0.6250000000000011
 40
0.6250000000000011
 40
0.6875000000000009
 40
0.6875000000000009
 40
0.7500000000000008
 40
0.7500000000000008
 40
0.8750000000000004
 40
0.8750000000000004
 40
1.0
 40
1.0
 40
1.0
 40
1.0
 10
174.2928097794572
 20
1034.683983788683
 30
0.0
 10
173.8523806742413
 20
1034.234656226862
 30
0.0
 10
173.4599786646302
 20
1033.750240847153
 30
0.0
 10
172.9414277597719
 20
1032.97257936611
 30
0.0
 10
172.7803293956848
 20
1032.704796360142
 30
0.0
 10
172.482237969334
 20
1032.151688830033
 30
0.0
 10
172.3447364788672
 20
1031.864912921138
 30
0.0
 10
171.9770862085225
 20
1030.994439412436
 30
0.0
 10
171.788968158859
 20
1030.397393742557
 30
0.0
 10
171.5254137087029
 20
1029.170262679325
 30
0.0
 10
171.4505771032849
 20
1028.533820057841
 30
0.0
 10
171.4227811086222
 20
1027.276016283245
 30
0.0
 10
171.4678085147454
 20
1026.650715426062
 30
0.0
 10
171.6242922217655
 20
1025.718201290006
 30
0.0
 10
171.6918851658525
 20
1025.406637773737
 30
0.0
 10
171.855008170235
 20
1024.796407027242
 30
0.0
 10
171.950436326554
 20
1024.497221103854
 30
0.0
 10
172.2772006142145
 20
1023.61698481527
 30
0.0
 10
172.5486628991101
 20
1023.05310346042
 30
0.0
 10
173.2015461016422
 20
1021.972479445118
 30
0.0
 10
173.5771144858952
 20
1021.466076638955
 30
0.0
 10
173.99827788243
 20
1020.997692287668
 30
0.0
  0
SPLINE
  5
118
330
1F
100
AcDbEntity
  8
0
  6
Continuous
 62
     7
370
    25
100
AcDbSpline
210
0.0
220
0.0
230
1.0
 70
     8
 71
     3
 72
    28
 73
    24
 74
     0
 42
0.00000001
 43
0.00000001
 40
0.0
 40
0.0
 40
0.0
 40
0.0
 40
0.1249999999999952
 40
0.1249999999999952
 40
0.1874999999999941
 40
0.1874999999999941
 40
0.249999999999993
 40
0.249999999999993
 40
0.3749999999999947
 40
0.3749999999999947
 40
0.4374999999999956
 40
0.4374999999999956
 40
0.4999999999999964
 40
0.4999999999999964
 40
0.6250000000000006
 40
0.6250000000000006
 40
0.7500000000000036
 40
0.7500000000000036
 40
0.8125000000000029
 40
0.8125000000000029
 40
0.8750000000000022
 40
0.8750000000000022
 40
1.0
 40
1.0
 40
1.0
 40
1.0
 10
68.5756666365429
 20
1034.683983788683
 30
0.0
 10
68.09952829068078
 20
1035.169742062835
 30
0.0
 10
67.59136820194158
 20
1035.590708678058
 30
0.0
 10
66.78084066025497
 20
1036.140961929673
 30
0.0
 10
66.50253710871674
 20
1036.310633011754
 30
0.0
 10
65.92867162976368
 20
1036.623044073873
 30
0.0
 10
65.63409650672398
 20
1036.765061424663
 30
0.0
 10
64.73997191100214
 20
1037.143965169482
 30
0.0
 10
64.1249746479447
 20
1037.33724144716
 30
0.0
 10
63.16740882942825
 20
1037.538042906608
 30
0.0
 10
62.84137907482965
 20
1037.5898978085
 30
0.0
 10
62.19045982364541
 20
1037.660722076077
 30
0.0
 10
61.86399919860383
 20
1037.680113757094
 30
0.0
 10
60.88130961390011
 20
1037.690157152535
 30
0.0
 10
60.22162580747734
 20
1037.633144385762
 30
0.0
 10
58.89472259063537
 20
1037.379708921417
 30
0.0
 10
58.24933980768386
 20
1037.1870098548
 30
0.0
 10
57.31771924545491
 20
1036.803580391023
 30
0.0
 10
57.01290703772888
 20
1036.659872135431
 30
0.0
 10
56.41565022569073
 20
1036.340109688548
 30
0.0
 10
56.12297811293438
 20
1036.163653936175
 30
0.0
 10
55.2821395937717
 20
1035.59655865857
 30
0.0
 10
54.76476030113128
 20
1035.16546962759
 30
0.0
 10
54.29280977945712
 20
1034.683983788683
 30
0.0
  0
SPLINE
  5
119
330
1F
100
AcDbEntity
  8
0
  6
Continuous
 62
     7
370
    25
100
AcDbSpline
210
0.0
220
0.0
230
1.0
 70
     8
 71
     3
 72
    28
 73
    24
 74
     0
 42
0.00000001
 43
0.00000001
 40
0.0
 40
0.0
 40
0.0
 40
0.0
 40
0.1249999999999952
 40
0.1249999999999952
 40
0.1874999999999941
 40
0.1874999999999941
 40
0.249999999999993
 40
0.249999999999993
 40
0.3749999999999947
 40
0.3749999999999947
 40
0.4374999999999956
 40
0.4374999999999956
 40
0.4999999999999964
 40
0.4999999999999964
 40
0.6250000000000006
 40
0.6250000000000006
 40
0.7500000000000036
 40
0.7500000000000036
 40
0.8125000000000029
 40
0.8125000000000029
 40
0.8750000000000022
 40
0.8750000000000022
 40
1.0
 40
1.0
 40
1.0
 40
1.0
 10
174.2928097794572
 20
1034.683983788683
 30
0.0
 10
174.7689481253193
 20
1035.169742062835
 30
0.0
 10
175.2771082140585
 20
1035.590708678058
 30
0.0
 10
176.0876357557451
 20
1036.140961929673
 30
0.0
 10
176.3659393072833
 20
1036.310633011754
 30
0.0
 10
176.9398047862364
 20
1036.623044073873
 30
0.0
 10
177.2343799092761
 20
1036.765061424663
 30
0.0
 10
178.1285045049979
 20
1037.143965169482
 30
0.0
 10
178.7435017680554
 20
1037.33724144716
 30
0.0
 10
179.7010675865718
 20
1037.538042906608
 30
0.0
 10
180.0270973411704
 20
1037.5898978085
 30
0.0
 10
180.6780165923547
 20
1037.660722076077
 30
0.0
 10
181.0044772173962
 20
1037.680113757094
 30
0.0
 10
181.9871668021
 20
1037.690157152535
 30
0.0
 10
182.6468506085227
 20
1037.633144385762
 30
0.0
 10
183.9737538253647
 20
1037.379708921417
 30
0.0
 10
184.6191366083162
 20
1037.1870098548
 30
0.0
 10
185.5507571705452
 20
1036.803580391023
 30
0.0
 10
185.8555693782712
 20
1036.659872135431
 30
0.0
 10
186.4528261903093
 20
1036.340109688548
 30
0.0
 10
186.7454983030657
 20
1036.163653936175
 30
0.0
 10
187.5863368222284
 20
1035.59655865857
 30
0.0
 10
188.1037161148688
 20
1035.16546962759
 30
0.0
 10
188.575666636543
 20
1034.683983788683
 30
0.0
  0
LINE
  5
11A
330
1F
100
AcDbEntity
  8
0
  6
Continuous
 62
     7
370
    25
100
AcDbLine
 10
372.134238208
 20
1042.6839837887
 30
0.0
 11
-129.265761792
 21
1042.6839837887
 31
0.0
  0
SPLINE
  5
11B
330
1F
100
AcDbEntity
  8
0
  6
Continuous
 62
     7
370
    25
100
AcDbSpline
210
0.0
220
0.0
230
1.0
 70
     8
 71
     3
 72
    32
 73
    28
 74
     0
 42
0.00000001
 43
0.00000001
 40
0.0
 40
0.0
 40
0.0
 40
0.0
 40
0.1250000000000027
 40
0.1250000000000027
 40
0.1875000000000043
 40
0.1875000000000043
 40
0.2500000000000059
 40
0.2500000000000059
 40
0.3750000000000082
 40
0.3750000000000082
 40
0.4375000000000081
 40
0.4375000000000081
 40
0.5000000000000081
 40
0.5000000000000081
 40
0.5625000000000069
 40
0.5625000000000069
 40
0.6250000000000057
 40
0.6250000000000057
 40
0.7500000000000013
 40
0.7500000000000013
 40
0.812500000000001
 40
0.812500000000001
 40
0.8750000000000007
 40
0.8750000000000007
 40
0.9375000000000004
 40
0.9375000000000004
 40
1.0
 40
1.0
 40
1.0
 40
1.0
 10
53.99827788242993
 20
1020.997692287668
 30
0.0
 10
54.47433901880708
 20
1020.468255046993
 30
0.0
 10
55.00148574375547
 20
1019.994813166545
 30
0.0
 10
55.86426846847633
 20
1019.371261648407
 30
0.0
 10
56.16395171139267
 20
1019.177924487995
 30
0.0
 10
56.78767400215993
 20
1018.82179412336
 30
0.0
 10
57.10851458458609
 20
1018.660983938898
 30
0.0
 10
58.08610398307748
 20
1018.234346661607
 30
0.0
 10
58.76188575551973
 20
1018.021426571901
 30
0.0
 10
59.80837619696003
 20
1017.810626071041
 30
0.0
 10
60.16099940278301
 20
1017.759176633596
 30
0.0
 10
60.859237949953
 20
1017.694373745042
 30
0.0
 10
61.20687879716904
 20
1017.680577485138
 30
0.0
 10
61.89915928605446
 20
1017.68880103064
 30
0.0
 10
62.24380033155167
 20
1017.710817833414
 30
0.0
 10
62.93036487630946
 20
1017.79049931679
 30
0.0
 10
63.27225839042391
 20
1017.848415605559
 30
0.0
 10
64.27272941833421
 20
1018.070979765363
 30
0.0
 10
64.91414329143996
 20
1018.284296161229
 30
0.0
 10
65.84589570596086
 20
1018.703268625537
 30
0.0
 10
66.15191445133081
 20
1018.860141778341
 30
0.0
 10
66.74297603039686
 20
1019.202594769577
 30
0.0
 10
67.02952239561836
 20
1019.388755343098
 30
0.0
 10
67.5856084386375
 20
1019.792300546795
 30
0.0
 10
67.85514805092619
 20
1020.00966845116
 30
0.0
 10
68.37741641923739
 20
1020.478744345214
 30
0.0
 10
68.6304152227169
 20
1020.731024406681
 30
0.0
 10
68.87019853357012
 20
1020.997692287668
 30
0.0
  0
SPLINE
  5
11C
330
1F
100
AcDbEntity
  8
0
  6
Continuous
 62
     7
370
    25
100
AcDbSpline
210
0.0
220
0.0
230
1.0
 70
     8
 71
     3
 72
    32
 73
    28
 74
     0
 42
0.00000001
 43
0.00000001
 40
0.0
 40
0.0
 40
0.0
 40
0.0
 40
0.1250000000000027
 40
0.1250000000000027
 40
0.1875000000000043
 40
0.1875000000000043
 40
0.2500000000000059
 40
0.2500000000000059
 40
0.3750000000000082
 40
0.3750000000000082
 40
0.4375000000000081
 40
0.4375000000000081
 40
0.5000000000000081
 40
0.5000000000000081
 40
0.5625000000000069
 40
0.5625000000000069
 40
0.6250000000000057
 40
0.6250000000000057
 40
0.7500000000000013
 40
0.7500000000000013
 40
0.812500000000001
 40
0.812500000000001
 40
0.8750000000000007
 40
0.8750000000000007
 40
0.9375000000000004
 40
0.9375000000000004
 40
1.0
 40
1.0
 40
1.0
 40
1.0
 10
188.8701985335701
 20
1020.997692287668
 30
0.0
 10
188.394137397193
 20
1020.468255046993
 30
0.0
 10
187.8669906722446
 20
1019.994813166545
 30
0.0
 10
187.0042079475237
 20
1019.371261648407
 30
0.0
 10
186.7045247046074
 20
1019.177924487995
 30
0.0
 10
186.0808024138401
 20
1018.82179412336
 30
0.0
 10
185.759961831414
 20
1018.660983938898
 30
0.0
 10
184.7823724329226
 20
1018.234346661607
 30
0.0
 10
184.1065906604804
 20
1018.021426571901
 30
0.0
 10
183.06010021904
 20
1017.810626071041
 30
0.0
 10
182.707477013217
 20
1017.759176633596
 30
0.0
 10
182.0092384660471
 20
1017.694373745042
 30
0.0
 10
181.661597618831
 20
1017.680577485138
 30
0.0
 10
180.9693171299456
 20
1017.68880103064
 30
0.0
 10
180.6246760844484
 20
1017.710817833414
 30
0.0
 10
179.9381115396906
 20
1017.79049931679
 30
0.0
 10
179.5962180255761
 20
1017.848415605559
 30
0.0
 10
178.5957469976659
 20
1018.070979765363
 30
0.0
 10
177.9543331245601
 20
1018.284296161229
 30
0.0
 10
177.0225807100392
 20
1018.703268625537
 30
0.0
 10
176.7165619646693
 20
1018.860141778341
 30
0.0
 10
176.1255003856032
 20
1019.202594769577
 30
0.0
 10
175.8389540203817
 20
1019.388755343098
 30
0.0
 10
175.2828679773626
 20
1019.792300546795
 30
0.0
 10
175.0133283650739
 20
1020.00966845116
 30
0.0
 10
174.4910599967627
 20
1020.478744345214
 30
0.0
 10
174.2380611932832
 20
1020.731024406681
 30
0.0
 10
173.9982778824299
 20
1020.997692287668
 30
0.0
  0
LINE
  5
11D
330
1F
100
AcDbEntity
  8
0
  6
Continuous
 62
     7
370
    25
100
AcDbLine
 10
173.9982778824
 20
744.3702752897
 30
0.0
 11
68.8701985336
 21
744.3702752897
 31
0.0
  0
SPLINE
  5
11E
330
1F
100
AcDbEntity
  8
0
  6
Continuous
 62
     7
370
    25
100
AcDbSpline
210
0.0
220
0.0
230
1.0
 70
     8
 71
     3
 72
    32
 73
    28
 74
     0
 42
0.00000001
 43
0.00000001
 40
0.0
 40
0.0
 40
0.0
 40
0.0
 40
0.1250000000000027
 40
0.1250000000000027
 40
0.1875000000000043
 40
0.1875000000000043
 40
0.2500000000000059
 40
0.2500000000000059
 40
0.3750000000000082
 40
0.3750000000000082
 40
0.4375000000000081
 40
0.4375000000000081
 40
0.5000000000000081
 40
0.5000000000000081
 40
0.5625000000000069
 40
0.5625000000000069
 40
0.6250000000000057
 40
0.6250000000000057
 40
0.7500000000000013
 40
0.7500000000000013
 40
0.812500000000001
 40
0.812500000000001
 40
0.8750000000000007
 40
0.8750000000000007
 40
0.9375000000000004
 40
0.9375000000000004
 40
1.0
 40
1.0
 40
1.0
 40
1.0
 10
53.99827788242993
 20
744.3702752896986
 30
0.0
 10
54.47433901880708
 20
744.8997125303734
 30
0.0
 10
55.00148574375547
 20
745.3731544108217
 30
0.0
 10
55.86426846847633
 20
745.9967059289597
 30
0.0
 10
56.16395171139267
 20
746.190043089372
 30
0.0
 10
56.78767400215993
 20
746.5461734540064
 30
0.0
 10
57.10851458458609
 20
746.7069836384682
 30
0.0
 10
58.08610398307748
 20
747.1336209157597
 30
0.0
 10
58.76188575551973
 20
747.3465410054653
 30
0.0
 10
59.80837619696003
 20
747.5573415063253
 30
0.0
 10
60.16099940278301
 20
747.6087909437705
 30
0.0
 10
60.859237949953
 20
747.673593832325
 30
0.0
 10
61.20687879716904
 20
747.6873900922283
 30
0.0
 10
61.89915928605446
 20
747.6791665467263
 30
0.0
 10
62.24380033155167
 20
747.6571497439523
 30
0.0
 10
62.93036487630946
 20
747.5774682605769
 30
0.0
 10
63.27225839042391
 20
747.5195519718075
 30
0.0
 10
64.27272941833421
 20
747.2969878120037
 30
0.0
 10
64.91414329143996
 20
747.0836714161378
 30
0.0
 10
65.84589570596086
 20
746.664698951829
 30
0.0
 10
66.15191445133081
 20
746.5078257990253
 30
0.0
 10
66.74297603039686
 20
746.1653728077897
 30
0.0
 10
67.02952239561836
 20
745.9792122342691
 30
0.0
 10
67.5856084386375
 20
745.5756670305713
 30
0.0
 10
67.85514805092619
 20
745.3582991262066
 30
0.0
 10
68.37741641923739
 20
744.8892232321529
 30
0.0
 10
68.6304152227169
 20
744.6369431706859
 30
0.0
 10
68.87019853357012
 20
744.3702752896986
 30
0.0
  0
SPLINE
  5
11F
330
1F
100
AcDbEntity
  8
0
  6
Continuous
 62
     7
370
    25
100
AcDbSpline
210
0.0
220
0.0
230
1.0
 70
     8
 71
     3
 72
    32
 73
    28
 74
     0
 42
0.00000001
 43
0.00000001
 40
0.0
 40
0.0
 40
0.0
 40
0.0
 40
0.1250000000000027
 40
0.1250000000000027
 40
0.1875000000000043
 40
0.1875000000000043
 40
0.2500000000000059
 40
0.2500000000000059
 40
0.3750000000000082
 40
0.3750000000000082
 40
0.4375000000000081
 40
0.4375000000000081
 40
0.5000000000000081
 40
0.5000000000000081
 40
0.5625000000000069
 40
0.5625000000000069
 40
0.6250000000000057
 40
0.6250000000000057
 40
0.7500000000000013
 40
0.7500000000000013
 40
0.812500000000001
 40
0.812500000000001
 40
0.8750000000000007
 40
0.8750000000000007
 40
0.9375000000000004
 40
0.9375000000000004
 40
1.0
 40
1.0
 40
1.0
 40
1.0
 10
188.8701985335701
 20
744.3702752896986
 30
0.0
 10
188.394137397193
 20
744.8997125303734
 30
0.0
 10
187.8669906722446
 20
745.3731544108217
 30
0.0
 10
187.0042079475237
 20
745.9967059289597
 30
0.0
 10
186.7045247046074
 20
746.190043089372
 30
0.0
 10
186.0808024138401
 20
746.5461734540064
 30
0.0
 10
185.759961831414
 20
746.7069836384682
 30
0.0
 10
184.7823724329226
 20
747.1336209157597
 30
0.0
 10
184.1065906604804
 20
747.3465410054653
 30
0.0
 10
183.06010021904
 20
747.5573415063253
 30
0.0
 10
182.707477013217
 20
747.6087909437705
 30
0.0
 10
182.0092384660471
 20
747.673593832325
 30
0.0
 10
181.661597618831
 20
747.6873900922283
 30
0.0
 10
180.9693171299456
 20
747.6791665467263
 30
0.0
 10
180.6246760844484
 20
747.6571497439523
 30
0.0
 10
179.9381115396906
 20
747.5774682605769
 30
0.0
 10
179.5962180255761
 20
747.5195519718075
 30
0.0
 10
178.5957469976659
 20
747.2969878120037
 30
0.0
 10
177.9543331245601
 20
747.0836714161378
 30
0.0
 10
177.0225807100392
 20
746.664698951829
 30
0.0
 10
176.7165619646693
 20
746.5078257990253
 30
0.0
 10
176.1255003856032
 20
746.1653728077897
 30
0.0
 10
175.8389540203817
 20
745.9792122342691
 30
0.0
 10
175.2828679773626
 20
745.5756670305713
 30
0.0
 10
175.0133283650739
 20
745.3582991262066
 30
0.0
 10
174.4910599967627
 20
744.8892232321529
 30
0.0
 10
174.2380611932832
 20
744.6369431706859
 30
0.0
 10
173.9982778824299
 20
744.3702752896986
 30
0.0
  0
SPLINE
  5
120
330
1F
100
AcDbEntity
  8
0
  6
Continuous
 62
     7
370
    25
100
AcDbSpline
210
0.0
220
0.0
230
1.0
 70
     8
 71
     3
 72
    26
 73
    22
 74
     0
 42
0.00000001
 43
0.00000001
 40
0.0
 40
0.0
 40
0.0
 40
0.0
 40
0.1250000000000006
 40
0.1250000000000006
 40
0.1875000000000008
 40
0.1875000000000008
 40
0.2500000000000011
 40
0.2500000000000011
 40
0.3750000000000011
 40
0.3750000000000011
 40
0.5000000000000011
 40
0.5000000000000011
 40
0.6250000000000011
 40
0.6250000000000011
 40
0.6875000000000009
 40
0.6875000000000009
 40
0.7500000000000008
 40
0.7500000000000008
 40
0.8750000000000004
 40
0.8750000000000004
 40
1.0
 40
1.0
 40
1.0
 40
1.0
 10
68.5756666365429
 20
730.6839837886832
 30
0.0
 10
69.01609574175872
 20
731.1333113505041
 30
0.0
 10
69.40849775136984
 20
731.6177267302137
 30
0.0
 10
69.92704865622815
 20
732.3953882112563
 30
0.0
 10
70.08814702031529
 20
732.6631712172249
 30
0.0
 10
70.38623844666608
 20
733.2162787473331
 30
0.0
 10
70.52373993713287
 20
733.5030546562288
 30
0.0
 10
70.89139020747753
 20
734.3735281649301
 30
0.0
 10
71.07950825714109
 20
734.9705738348098
 30
0.0
 10
71.34306270729718
 20
736.197704898042
 30
0.0
 10
71.41789931271516
 20
736.8341475195258
 30
0.0
 10
71.4456953073779
 20
738.0919512941218
 30
0.0
 10
71.40066790125465
 20
738.7172521513045
 30
0.0
 10
71.24418419423459
 20
739.6497662873606
 30
0.0
 10
71.17659125014758
 20
739.9613298036292
 30
0.0
 10
71.01346824576501
 20
740.5715605501241
 30
0.0
 10
70.91804008944602
 20
740.8707464735123
 30
0.0
 10
70.59127580178554
 20
741.7509827620967
 30
0.0
 10
70.31981351689
 20
742.3148641169464
 30
0.0
 10
69.6669303143579
 20
743.3954881322483
 30
0.0
 10
69.29136193010486
 20
743.9018909384121
 30
0.0
 10
68.8701985335701
 20
744.3702752896986
 30
0.0
  0
SPLINE
  5
121
330
1F
100
AcDbEntity
  8
0
  6
Continuous
 62
     7
370
    25
100
AcDbSpline
210
0.0
220
0.0
230
1.0
 70
     8
 71
     3
 72
    26
 73
    22
 74
     0
 42
0.00000001
 43
0.00000001
 40
0.0
 40
0.0
 40
0.0
 40
0.0
 40
0.1250000000000006
 40
0.1250000000000006
 40
0.1875000000000008
 40
0.1875000000000008
 40
0.2500000000000011
 40
0.2500000000000011
 40
0.3750000000000011
 40
0.3750000000000011
 40
0.5000000000000011
 40
0.5000000000000011
 40
0.6250000000000011
 40
0.6250000000000011
 40
0.6875000000000009
 40
0.6875000000000009
 40
0.7500000000000008
 40
0.7500000000000008
 40
0.8750000000000004
 40
0.8750000000000004
 40
1.0
 40
1.0
 40
1.0
 40
1.0
 10
174.2928097794572
 20
730.6839837886832
 30
0.0
 10
173.8523806742413
 20
731.1333113505041
 30
0.0
 10
173.4599786646302
 20
731.6177267302137
 30
0.0
 10
172.9414277597719
 20
732.3953882112563
 30
0.0
 10
172.7803293956848
 20
732.6631712172249
 30
0.0
 10
172.482237969334
 20
733.2162787473331
 30
0.0
 10
172.3447364788672
 20
733.5030546562288
 30
0.0
 10
171.9770862085225
 20
734.3735281649301
 30
0.0
 10
171.788968158859
 20
734.9705738348098
 30
0.0
 10
171.5254137087029
 20
736.197704898042
 30
0.0
 10
171.4505771032849
 20
736.8341475195258
 30
0.0
 10
171.4227811086222
 20
738.0919512941218
 30
0.0
 10
171.4678085147454
 20
738.7172521513045
 30
0.0
 10
171.6242922217655
 20
739.6497662873606
 30
0.0
 10
171.6918851658525
 20
739.9613298036292
 30
0.0
 10
171.855008170235
 20
740.5715605501241
 30
0.0
 10
171.950436326554
 20
740.8707464735123
 30
0.0
 10
172.2772006142145
 20
741.7509827620967
 30
0.0
 10
172.5486628991101
 20
742.3148641169464
 30
0.0
 10
173.2015461016422
 20
743.3954881322483
 30
0.0
 10
173.5771144858952
 20
743.9018909384121
 30
0.0
 10
173.99827788243
 20
744.3702752896986
 30
0.0
  0
LINE
  5
122
330
1F
100
AcDbEntity
  8
0
  6
Continuous
 62
     7
370
    25
100
AcDbLine
 10
68.5756666365
 20
730.6839837887
 30
0.0
 11
174.2928097795
 21
730.6839837887
 31
0.0
  0
LINE
  5
123
330
1F
100
AcDbEntity
  8
0
  6
Continuous
 62
     7
370
    25
100
AcDbLine
 10
-129.265761792
 20
722.6839837887
 30
0.0
 11
372.134238208
 21
722.6839837887
 31
0.0
  0
SPLINE
  5
124
330
1F
100
AcDbEntity
  8
0
  6
Continuous
 62
     7
370
    25
100
AcDbSpline
210
0.0
220
0.0
230
1.0
 70
     8
 71
     3
 72
    28
 73
    24
 74
     0
 42
0.00000001
 43
0.00000001
 40
0.0
 40
0.0
 40
0.0
 40
0.0
 40
0.1249999999999952
 40
0.1249999999999952
 40
0.1874999999999941
 40
0.1874999999999941
 40
0.249999999999993
 40
0.249999999999993
 40
0.3749999999999947
 40
0.3749999999999947
 40
0.4374999999999956
 40
0.4374999999999956
 40
0.4999999999999964
 40
0.4999999999999964
 40
0.6250000000000006
 40
0.6250000000000006
 40
0.7500000000000036
 40
0.7500000000000036
 40
0.8125000000000029
 40
0.8125000000000029
 40
0.8750000000000022
 40
0.8750000000000022
 40
1.0
 40
1.0
 40
1.0
 40
1.0
 10
68.5756666365429
 20
730.6839837886832
 30
0.0
 10
68.09952829068078
 20
730.1982255145319
 30
0.0
 10
67.59136820194158
 20
729.7772588993084
 30
0.0
 10
66.78084066025497
 20
729.2270056476934
 30
0.0
 10
66.50253710871674
 20
729.0573345656123
 30
0.0
 10
65.92867162976368
 20
728.7449235034939
 30
0.0
 10
65.63409650672398
 20
728.6029061527033
 30
0.0
 10
64.73997191100214
 20
728.2240024078843
 30
0.0
 10
64.1249746479447
 20
728.0307261302069
 30
0.0
 10
63.16740882942825
 20
727.8299246707581
 30
0.0
 10
62.84137907482965
 20
727.7780697688663
 30
0.0
 10
62.19045982364541
 20
727.7072455012899
 30
0.0
 10
61.86399919860383
 20
727.6878538202723
 30
0.0
 10
60.88130961390011
 20
727.6778104248313
 30
0.0
 10
60.22162580747734
 20
727.7348231916045
 30
0.0
 10
58.89472259063537
 20
727.9882586559495
 30
0.0
 10
58.24933980768386
 20
728.1809577225667
 30
0.0
 10
57.31771924545491
 20
728.5643871863432
 30
0.0
 10
57.01290703772888
 20
728.7080954419356
 30
0.0
 10
56.41565022569073
 20
729.0278578888183
 30
0.0
 10
56.12297811293438
 20
729.2043136411922
 30
0.0
 10
55.2821395937717
 20
729.7714089187967
 30
0.0
 10
54.76476030113128
 20
730.2024979497762
 30
0.0
 10
54.29280977945712
 20
730.6839837886832
 30
0.0
  0
SPLINE
  5
125
330
1F
100
AcDbEntity
  8
0
  6
Continuous
 62
     7
370
    25
100
AcDbSpline
210
0.0
220
0.0
230
1.0
 70
     8
 71
     3
 72
    28
 73
    24
 74
     0
 42
0.00000001
 43
0.00000001
 40
0.0
 40
0.0
 40
0.0
 40
0.0
 40
0.1249999999999952
 40
0.1249999999999952
 40
0.1874999999999941
 40
0.1874999999999941
 40
0.249999999999993
 40
0.249999999999993
 40
0.3749999999999947
 40
0.3749999999999947
 40
0.4374999999999956
 40
0.4374999999999956
 40
0.4999999999999964
 40
0.4999999999999964
 40
0.6250000000000006
 40
0.6250000000000006
 40
0.7500000000000036
 40
0.7500000000000036
 40
0.8125000000000029
 40
0.8125000000000029
 40
0.8750000000000022
 40
0.8750000000000022
 40
1.0
 40
1.0
 40
1.0
 40
1.0
 10
174.2928097794572
 20
730.6839837886832
 30
0.0
 10
174.7689481253193
 20
730.1982255145319
 30
0.0
 10
175.2771082140585
 20
729.7772588993084
 30
0.0
 10
176.0876357557451
 20
729.2270056476934
 30
0.0
 10
176.3659393072833
 20
729.0573345656123
 30
0.0
 10
176.9398047862364
 20
728.7449235034939
 30
0.0
 10
177.2343799092761
 20
728.6029061527033
 30
0.0
 10
178.1285045049979
 20
728.2240024078843
 30
0.0
 10
178.7435017680554
 20
728.0307261302069
 30
0.0
 10
179.7010675865718
 20
727.8299246707581
 30
0.0
 10
180.0270973411704
 20
727.7780697688663
 30
0.0
 10
180.6780165923547
 20
727.7072455012899
 30
0.0
 10
181.0044772173962
 20
727.6878538202723
 30
0.0
 10
181.9871668021
 20
727.6778104248313
 30
0.0
 10
182.6468506085227
 20
727.7348231916045
 30
0.0
 10
183.9737538253647
 20
727.9882586559495
 30
0.0
 10
184.6191366083162
 20
728.1809577225667
 30
0.0
 10
185.5507571705452
 20
728.5643871863432
 30
0.0
 10
185.8555693782712
 20
728.7080954419356
 30
0.0
 10
186.4528261903093
 20
729.0278578888183
 30
0.0
 10
186.7454983030657
 20
729.2043136411922
 30
0.0
 10
187.5863368222284
 20
729.7714089187967
 30
0.0
 10
188.1037161148688
 20
730.2024979497762
 30
0.0
 10
188.575666636543
 20
730.6839837886832
 30
0.0
  0
CIRCLE
  5
126
330
1F
100
AcDbEntity
  8
0
  6
Continuous
 62
     7
370
    25
100
AcDbCircle
 10
61.434238208
 20
1027.6839837887
 30
0.0
 40
7.023084155933176
  0
CIRCLE
  5
127
330
1F
100
AcDbEntity
  8
0
  6
Continuous
 62
     7
370
    25
100
AcDbCircle
 10
61.434238208
 20
1027.6839837887
 30
0.0
 40
7.215089870143572
  0
CIRCLE
  5
128
330
1F
100
AcDbEntity
  8
0
  6
Continuous
 62
     7
370
    25
100
AcDbCircle
 10
181.434238208
 20
1027.6839837887
 30
0.0
 40
7.023084155933162
  0
CIRCLE
  5
129
330
1F
100
AcDbEntity
  8
0
  6
Continuous
 62
     7
370
    25
100
AcDbCircle
 10
181.434238208
 20
1027.6839837887
 30
0.0
 40
7.215089870143572
  0
CIRCLE
  5
12A
330
1F
100
AcDbEntity
  8
0
  6
Continuous
 62
     7
370
    25
100
AcDbCircle
 10
61.434238208
 20
1027.6839837887
 30
0.0
 40
4.600000000000016
  0
CIRCLE
  5
12B
330
1F
100
AcDbEntity
  8
0
  6
Continuous
 62
     7
370
    25
100
AcDbCircle
 10
181.434238208
 20
1027.6839837887
 30
0.0
 40
4.600000000000023
  0
CIRCLE
  5
12C
330
1F
100
AcDbEntity
  8
0
  6
Continuous
 62
     7
370
    25
100
AcDbCircle
 10
61.434238208
 20
737.6839837887
 30
0.0
 40
7.023084155933176
  0
CIRCLE
  5
12D
330
1F
100
AcDbEntity
  8
0
  6
Continuous
 62
     7
370
    25
100
AcDbCircle
 10
61.434238208
 20
737.6839837887
 30
0.0
 40
4.600000000000016
  0
CIRCLE
  5
12E
330
1F
100
AcDbEntity
  8
0
  6
Continuous
 62
     7
370
    25
100
AcDbCircle
 10
181.434238208
 20
737.6839837887
 30
0.0
 40
7.023084155933162
  0
CIRCLE
  5
12F
330
1F
100
AcDbEntity
  8
0
  6
Continuous
 62
     7
370
    25
100
AcDbCircle
 10
181.434238208
 20
737.6839837887
 30
0.0
 40
4.600000000000023
  0
CIRCLE
  5
130
330
1F
100
AcDbEntity
  8
0
  6
Continuous
 62
     7
370
    25
100
AcDbCircle
 10
181.434238208
 20
737.6839837887
 30
0.0
 40
7.215089870143572
  0
CIRCLE
  5
131
330
1F
100
AcDbEntity
  8
0
  6
Continuous
 62
     7
370
    25
100
AcDbCircle
 10
61.434238208
 20
737.6839837887
 30
0.0
 40
7.215089870143572
  0
SPLINE
  5
132
330
1F
100
AcDbEntity
  8
0
  6
Continuous
 62
     7
370
    25
100
AcDbSpline
210
0.0
220
0.0
230
1.0
 70
     8
 71
     3
 72
    26
 73
    22
 74
     0
 42
0.00000001
 43
0.00000001
 40
0.0
 40
0.0
 40
0.0
 40
0.0
 40
0.1249999999999983
 40
0.1249999999999983
 40
0.1874999999999994
 40
0.1874999999999994
 40
0.2500000000000006
 40
0.2500000000000006
 40
0.3749999999999988
 40
0.3749999999999988
 40
0.499999999999997
 40
0.499999999999997
 40
0.6249999999999952
 40
0.6249999999999952
 40
0.6874999999999941
 40
0.6874999999999941
 40
0.749999999999993
 40
0.749999999999993
 40
0.8749999999999966
 40
0.8749999999999966
 40
1.0
 40
1.0
 40
1.0
 40
1.0
 10
53.99827788242992
 20
1020.997692287668
 30
0.0
 10
53.57878049006111
 20
1021.464223841948
 30
0.0
 10
53.20811838555492
 20
1021.963966724159
 30
0.0
 10
52.72362786950408
 20
1022.762380577451
 30
0.0
 10
52.57412713580973
 20
1023.036705298656
 30
0.0
 10
52.2997995991357
 20
1023.602219846917
 30
0.0
 10
52.17456279013902
 20
1023.894820796513
 30
0.0
 10
51.8441956674333
 20
1024.780802056237
 30
0.0
 10
51.68147156994318
 20
1025.386289118678
 30
0.0
 10
51.47039212943618
 20
1026.626803947951
 30
0.0
 10
51.42301779339202
 20
1027.268017199771
 30
0.0
 10
51.45005648518949
 20
1028.528778271887
 30
0.0
 10
51.52256252150313
 20
1029.153073088573
 30
0.0
 10
51.72046283112655
 20
1030.080325270815
 30
0.0
 10
51.80191622825411
 20
1030.389163216121
 30
0.0
 10
51.99168637905087
 20
1030.991223939283
 30
0.0
 10
52.10014374534412
 20
1031.285721046316
 30
0.0
 10
52.46514584113761
 20
1032.150157202008
 30
0.0
 10
52.76143524575766
 20
1032.701905198201
 30
0.0
 10
53.45990687743829
 20
1033.750868188802
 30
0.0
 10
53.85417789224209
 20
1034.236489755966
 30
0.0
 10
54.29280977945712
 20
1034.683983788683
 30
0.0
  0
SPLINE
  5
133
330
1F
100
AcDbEntity
  8
0
  6
Continuous
 62
     7
370
    25
100
AcDbSpline
210
0.0
220
0.0
230
1.0
 70
     8
 71
     3
 72
    26
 73
    22
 74
     0
 42
0.00000001
 43
0.00000001
 40
0.0
 40
0.0
 40
0.0
 40
0.0
 40
0.1249999999999983
 40
0.1249999999999983
 40
0.1874999999999994
 40
0.1874999999999994
 40
0.2500000000000006
 40
0.2500000000000006
 40
0.3749999999999988
 40
0.3749999999999988
 40
0.499999999999997
 40
0.499999999999997
 40
0.6249999999999952
 40
0.6249999999999952
 40
0.6874999999999941
 40
0.6874999999999941
 40
0.749999999999993
 40
0.749999999999993
 40
0.8749999999999966
 40
0.8749999999999966
 40
1.0
 40
1.0
 40
1.0
 40
1.0
 10
188.8701985335701
 20
1020.997692287668
 30
0.0
 10
189.289695925939
 20
1021.464223841948
 30
0.0
 10
189.6603580304451
 20
1021.963966724159
 30
0.0
 10
190.144848546496
 20
1022.762380577451
 30
0.0
 10
190.2943492801903
 20
1023.036705298656
 30
0.0
 10
190.5686768168644
 20
1023.602219846917
 30
0.0
 10
190.6939136258611
 20
1023.894820796513
 30
0.0
 10
191.0242807485668
 20
1024.780802056237
 30
0.0
 10
191.1870048460569
 20
1025.386289118678
 30
0.0
 10
191.3980842865639
 20
1026.626803947951
 30
0.0
 10
191.445458622608
 20
1027.268017199771
 30
0.0
 10
191.4184199308106
 20
1028.528778271887
 30
0.0
 10
191.345913894497
 20
1029.153073088573
 30
0.0
 10
191.1480135848735
 20
1030.080325270815
 30
0.0
 10
191.0665601877459
 20
1030.389163216121
 30
0.0
 10
190.8767900369492
 20
1030.991223939283
 30
0.0
 10
190.768332670656
 20
1031.285721046316
 30
0.0
 10
190.4033305748625
 20
1032.150157202008
 30
0.0
 10
190.1070411702424
 20
1032.701905198201
 30
0.0
 10
189.4085695385618
 20
1033.750868188802
 30
0.0
 10
189.014298523758
 20
1034.236489755966
 30
0.0
 10
188.575666636543
 20
1034.683983788683
 30
0.0
  0
SPLINE
  5
134
330
1F
100
AcDbEntity
  8
0
  6
Continuous
 62
     7
370
    25
100
AcDbSpline
210
0.0
220
0.0
230
1.0
 70
     8
 71
     3
 72
    26
 73
    22
 74
     0
 42
0.00000001
 43
0.00000001
 40
0.0
 40
0.0
 40
0.0
 40
0.0
 40
0.1249999999999983
 40
0.1249999999999983
 40
0.1874999999999994
 40
0.1874999999999994
 40
0.2500000000000006
 40
0.2500000000000006
 40
0.3749999999999988
 40
0.3749999999999988
 40
0.499999999999997
 40
0.499999999999997
 40
0.6249999999999952
 40
0.6249999999999952
 40
0.6874999999999941
 40
0.6874999999999941
 40
0.749999999999993
 40
0.749999999999993
 40
0.8749999999999966
 40
0.8749999999999966
 40
1.0
 40
1.0
 40
1.0
 40
1.0
 10
188.8701985335701
 20
744.3702752896986
 30
0.0
 10
189.289695925939
 20
743.903743735419
 30
0.0
 10
189.6603580304451
 20
743.4040008532079
 30
0.0
 10
190.144848546496
 20
742.6055869999152
 30
0.0
 10
190.2943492801903
 20
742.3312622787105
 30
0.0
 10
190.5686768168644
 20
741.7657477304501
 30
0.0
 10
190.6939136258611
 20
741.4731467808538
 30
0.0
 10
191.0242807485668
 20
740.5871655211296
 30
0.0
 10
191.1870048460569
 20
739.9816784586881
 30
0.0
 10
191.3980842865639
 20
738.7411636294157
 30
0.0
 10
191.445458622608
 20
738.0999503775957
 30
0.0
 10
191.4184199308106
 20
736.8391893054797
 30
0.0
 10
191.345913894497
 20
736.2148944887938
 30
0.0
 10
191.1480135848735
 20
735.2876423065521
 30
0.0
 10
191.0665601877459
 20
734.9788043612457
 30
0.0
 10
190.8767900369492
 20
734.3767436380839
 30
0.0
 10
190.768332670656
 20
734.0822465310508
 30
0.0
 10
190.4033305748625
 20
733.2178103753581
 30
0.0
 10
190.1070411702424
 20
732.6660623791653
 30
0.0
 10
189.4085695385618
 20
731.6170993885648
 30
0.0
 10
189.014298523758
 20
731.1314778214008
 30
0.0
 10
188.575666636543
 20
730.6839837886832
 30
0.0
  0
SPLINE
  5
135
330
1F
100
AcDbEntity
  8
0
  6
Continuous
 62
     7
370
    25
100
AcDbSpline
210
0.0
220
0.0
230
1.0
 70
     8
 71
     3
 72
    26
 73
    22
 74
     0
 42
0.00000001
 43
0.00000001
 40
0.0
 40
0.0
 40
0.0
 40
0.0
 40
0.1249999999999983
 40
0.1249999999999983
 40
0.1874999999999994
 40
0.1874999999999994
 40
0.2500000000000006
 40
0.2500000000000006
 40
0.3749999999999988
 40
0.3749999999999988
 40
0.499999999999997
 40
0.499999999999997
 40
0.6249999999999952
 40
0.6249999999999952
 40
0.6874999999999941
 40
0.6874999999999941
 40
0.749999999999993
 40
0.749999999999993
 40
0.8749999999999966
 40
0.8749999999999966
 40
1.0
 40
1.0
 40
1.0
 40
1.0
 10
53.99827788242992
 20
744.3702752896986
 30
0.0
 10
53.57878049006111
 20
743.903743735419
 30
0.0
 10
53.20811838555492
 20
743.4040008532079
 30
0.0
 10
52.72362786950408
 20
742.6055869999152
 30
0.0
 10
52.57412713580973
 20
742.3312622787105
 30
0.0
 10
52.2997995991357
 20
741.7657477304501
 30
0.0
 10
52.17456279013902
 20
741.4731467808538
 30
0.0
 10
51.8441956674333
 20
740.5871655211296
 30
0.0
 10
51.68147156994318
 20
739.9816784586881
 30
0.0
 10
51.47039212943618
 20
738.7411636294157
 30
0.0
 10
51.42301779339202
 20
738.0999503775957
 30
0.0
 10
51.45005648518949
 20
736.8391893054797
 30
0.0
 10
51.52256252150313
 20
736.2148944887938
 30
0.0
 10
51.72046283112655
 20
735.2876423065521
 30
0.0
 10
51.80191622825411
 20
734.9788043612457
 30
0.0
 10
51.99168637905087
 20
734.3767436380839
 30
0.0
 10
52.10014374534412
 20
734.0822465310508
 30
0.0
 10
52.46514584113761
 20
733.2178103753581
 30
0.0
 10
52.76143524575766
 20
732.6660623791653
 30
0.0
 10
53.45990687743829
 20
731.6170993885648
 30
0.0
 10
53.85417789224209
 20
731.1314778214008
 30
0.0
 10
54.29280977945712
 20
730.6839837886832
 30
0.0
  0
CIRCLE
  5
136
330
1F
100
AcDbEntity
  8
0
  6
Continuous
 62
     7
370
    25
100
AcDbCircle
 10
61.434238208
 20
1027.6839837887
 30
0.0
 40
3.600000000000016
  0
CIRCLE
  5
137
330
1F
100
AcDbEntity
  8
0
  6
Continuous
 62
     7
370
    25
100
AcDbCircle
 10
181.434238208
 20
1027.6839837887
 30
0.0
 40
3.600000000000023
  0
CIRCLE
  5
138
330
1F
100
AcDbEntity
  8
0
  6
Continuous
 62
     7
370
    25
100
AcDbCircle
 10
181.434238208
 20
737.6839837887
 30
0.0
 40
3.600000000000023
  0
CIRCLE
  5
139
330
1F
100
AcDbEntity
  8
0
  6
Continuous
 62
     7
370
    25
100
AcDbCircle
 10
61.434238208
 20
737.6839837887
 30
0.0
 40
3.600000000000016
  0
LINE
  5
13A
330
1F
100
AcDbEntity
  8
0
  6
Continuous
 62
     1
370
    25
100
AcDbLine
 10
54.2928097795
 20
1034.6839837887
 30
0.0
 11
-137.265761792
 21
1034.6839837887
 31
0.0
  0
LINE
  5
13B
330
1F
100
AcDbEntity
  8
0
  6
Continuous
 62
     1
370
    25
100
AcDbLine
 10
380.134238208
 20
1034.6839837887
 30
0.0
 11
188.5756666365
 21
1034.6839837887
 31
0.0
  0
LINE
  5
13C
330
1F
100
AcDbEntity
  8
0
  6
Continuous
 62
     1
370
    25
100
AcDbLine
 10
188.8701985336
 20
1020.9976922877
 30
0.0
 11
380.134238208
 21
1020.9976922877
 31
0.0
  0
LINE
  5
13D
330
1F
100
AcDbEntity
  8
0
  6
Continuous
 62
     1
370
    25
100
AcDbLine
 10
-137.265761792
 20
1020.9976922877
 30
0.0
 11
53.9982778824
 21
1020.9976922877
 31
0.0
  0
LINE
  5
13E
330
1F
100
AcDbEntity
  8
0
  6
Continuous
 62
     1
370
    25
100
AcDbLine
 10
377.7910924575
 20
1015.3408380382
 30
0.0
 11
-134.9226160415
 21
1015.3408380382
 31
0.0
  0
LINE
  5
13F
330
1F
100
AcDbEntity
  8
0
  6
Continuous
 62
     1
370
    25
100
AcDbLine
 10
-134.9226160415
 20
750.0271295392
 30
0.0
 11
377.7910924575
 21
750.0271295392
 31
0.0
  0
LINE
  5
140
330
1F
100
AcDbEntity
  8
0
  6
Continuous
 62
     1
370
    25
100
AcDbLine
 10
53.9982778824
 20
744.3702752897
 30
0.0
 11
-137.265761792
 21
744.3702752897
 31
0.0
  0
LINE
  5
141
330
1F
100
AcDbEntity
  8
0
  6
Continuous
 62
     1
370
    25
100
AcDbLine
 10
380.134238208
 20
744.3702752897
 30
0.0
 11
188.8701985336
 21
744.3702752897
 31
0.0
  0
LINE
  5
142
330
1F
100
AcDbEntity
  8
0
  6
Continuous
 62
     1
370
    25
100
AcDbLine
 10
188.5756666365
 20
730.6839837887
 30
0.0
 11
380.134238208
 21
730.6839837887
 31
0.0
  0
LINE
  5
143
330
1F
100
AcDbEntity
  8
0
  6
Continuous
 62
     1
370
    25
100
AcDbLine
 10
-137.265761792
 20
730.6839837887
 30
0.0
 11
54.2928097795
 21
730.6839837887
 31
0.0
  0
LINE
  5
144
330
1F
100
AcDbEntity
  8
0
  6
Continuous
 62
     1
370
    25
100
AcDbLine
 10
-136.565761792
 20
942.6839837887
 30
0.0
 11
379.434238208
 21
942.6839837887
 31
0.0
  0
LINE
  5
145
330
1F
100
AcDbEntity
  8
0
  6
Continuous
 62
     1
370
    25
100
AcDbLine
 10
376.5099091261
 20
976.7600741184
 30
0.0
 11
-133.6414327101
 21
976.7600741184
 31
0.0
  0
LINE
  5
146
330
1F
100
AcDbEntity
  8
0
  6
Continuous
 62
     1
370
    25
100
AcDbLine
 10
-136.565761792
 20
822.6839837887
 30
0.0
 11
379.434238208
 21
822.6839837887
 31
0.0
  0
LINE
  5
147
330
1F
100
AcDbEntity
  8
0
  6
Continuous
 62
     1
370
    25
100
AcDbLine
 10
-133.6414327101
 20
788.6078934589
 30
0.0
 11
376.5099091261
 21
788.6078934589
 31
0.0
  0
LINE
  5
148
330
1F
100
AcDbEntity
  8
0
  6
Continuous
 62
     1
370
    25
100
AcDbLine
 10
-131.6089075425
 20
1012.0271295392
 30
0.0
 11
374.4773839585
 21
1012.0271295392
 31
0.0
  0
LINE
  5
149
330
1F
100
AcDbEntity
  8
0
  6
Continuous
 62
     1
370
    25
100
AcDbLine
 10
374.4773839585
 20
753.3408380382
 30
0.0
 11
-131.6089075425
 21
753.3408380382
 31
0.0
  0
LINE
  5
14A
330
1F
100
AcDbEntity
  8
0
  6
Continuous
 62
     1
370
    25
100
AcDbLine
 10
-130.8640211309
 20
983.2000140463
 30
0.0
 11
373.7324975469
 21
983.2000140463
 31
0.0
  0
LINE
  5
14B
330
1F
100
AcDbEntity
  8
0
  6
Continuous
 62
     1
370
    25
100
AcDbLine
 10
373.7324975469
 20
782.1679535311
 30
0.0
 11
-130.8640211309
 21
782.1679535311
 31
0.0
  0
LINE
  5
14C
330
1F
100
AcDbEntity
  8
0
  6
Continuous
 62
     1
370
    25
100
AcDbLine
 10
372.134238208
 20
1006.3702752897
 30
0.0
 11
-129.265761792
 21
1006.3702752897
 31
0.0
  0
LINE
  5
14D
330
1F
100
AcDbEntity
  8
0
  6
Continuous
 62
     1
370
    25
100
AcDbLine
 10
-129.265761792
 20
758.9976922877
 30
0.0
 11
372.134238208
 21
758.9976922877
 31
0.0
  0
LINE
  5
14E
330
1F
100
AcDbEntity
  8
0
  6
Continuous
 62
     1
370
    25
100
AcDbLine
 10
-129.265761792
 20
987.9976922877
 30
0.0
 11
372.134238208
 21
987.9976922877
 31
0.0
  0
LINE
  5
14F
330
1F
100
AcDbEntity
  8
0
  6
Continuous
 62
     1
370
    25
100
AcDbLine
 10
372.134238208
 20
777.3702752897
 30
0.0
 11
-129.265761792
 21
777.3702752897
 31
0.0
  0
INSERT
  5
15B
330
1F
100
AcDbEntity
  8
FORMAT
 62
     7
100
AcDbBlockReference
  2
SW_CENTERMARKSYMBOL_1
 10
61.434238208
 20
1027.6839837887
 30
0.0
  0
INSERT
  5
167
330
1F
100
AcDbEntity
  8
FORMAT
 62
     7
100
AcDbBlockReference
  2
SW_CENTERMARKSYMBOL_2
 10
181.434238208
 20
1027.6839837887
 30
0.0
  0
INSERT
  5
173
330
1F
100
AcDbEntity
  8
FORMAT
 62
     7
100
AcDbBlockReference
  2
SW_CENTERMARKSYMBOL_3
 10
61.434238208
 20
737.6839837887
 30
0.0
  0
INSERT
  5
17F
330
1F
100
AcDbEntity
  8
FORMAT
 62
     7
100
AcDbBlockReference
  2
SW_CENTERMARKSYMBOL_4
 10
181.434238208
 20
737.6839837887
 30
0.0
  0
ARC
  5
180
330
1F
100
AcDbEntity
  8
0
  6
Continuous
 62
     7
370
    25
100
AcDbCircle
 10
-470.6382400481
 20
-139.4289524015
 30
0.0
 40
8.000000000000057
100
AcDbArc
 50
270.0
 51
0.0
  0
ARC
  5
181
330
1F
100
AcDbEntity
  8
0
  6
Continuous
 62
     7
370
    25
100
AcDbCircle
 10
-470.6382400481
 20
361.9710475985
 30
0.0
 40
8.000000000000057
100
AcDbArc
 50
0.0
 51
90.0
  0
ARC
  5
182
330
1F
100
AcDbEntity
  8
0
  6
Continuous
 62
     7
370
    25
100
AcDbCircle
 10
-774.6382400481
 20
361.9710475985
 30
0.0
 40
8.000000000000057
100
AcDbArc
 50
90.0
 51
180.0
  0
ARC
  5
183
330
1F
100
AcDbEntity
  8
0
  6
Continuous
 62
     7
370
    25
100
AcDbCircle
 10
-774.6382400481
 20
-139.4289524015
 30
0.0
 40
8.000000000000028
100
AcDbArc
 50
180.0
 51
270.0
  0
LINE
  5
184
330
1F
100
AcDbEntity
  8
0
  6
Continuous
 62
     7
370
    25
100
AcDbLine
 10
-484.3245315491
 20
-147.4289524015
 30
0.0
 11
-470.6382400481
 21
-147.4289524015
 31
0.0
  0
ARC
  5
185
330
1F
100
AcDbEntity
  8
0
  6
Continuous
 62
     7
370
    25
100
AcDbCircle
 10
-484.3245315491
 20
361.9710475985
 30
0.0
 40
8.000000000000057
100
AcDbArc
 50
90.0
 51
135.0
  0
ARC
  5
186
330
1F
100
AcDbEntity
  8
0
  6
Continuous
 62
     7
370
    25
100
AcDbCircle
 10
-484.3245315491
 20
-139.4289524015
 30
0.0
 40
8.000000000000028
100
AcDbArc
 50
225.0
 51
270.0
  0
LINE
  5
187
330
1F
100
AcDbEntity
  8
0
  6
Continuous
 62
     7
370
    25
100
AcDbLine
 10
-774.6382400481
 20
-147.4289524015
 30
0.0
 11
-760.951948547
 21
-147.4289524015
 31
0.0
  0
ARC
  5
188
330
1F
100
AcDbEntity
  8
0
  6
Continuous
 62
     7
370
    25
100
AcDbCircle
 10
-760.951948547
 20
361.9710475985
 30
0.0
 40
8.000000000000057
100
AcDbArc
 50
45.0
 51
90.0
  0
ARC
  5
189
330
1F
100
AcDbEntity
  8
0
  6
Continuous
 62
     7
370
    25
100
AcDbCircle
 10
-760.951948547
 20
-139.4289524015
 30
0.0
 40
8.000000000000028
100
AcDbArc
 50
270.0
 51
315.0
  0
LINE
  5
18A
330
1F
100
AcDbEntity
  8
0
  6
Continuous
 62
     7
370
    25
100
AcDbLine
 10
-682.6382400481
 20
-146.7289524015
 30
0.0
 11
-562.6382400481
 21
-146.7289524015
 31
0.0
  0
LINE
  5
18B
330
1F
100
AcDbEntity
  8
0
  6
Continuous
 62
     7
370
    25
100
AcDbLine
 10
-562.6382400481
 20
369.2710475985
 30
0.0
 11
-682.6382400481
 21
369.2710475985
 31
0.0
  0
ARC
  5
18C
330
1F
100
AcDbEntity
  8
0
  6
Continuous
 62
     7
370
    25
100
AcDbCircle
 10
-562.6382400481
 20
53.2710475985
 30
0.0
 40
200.0000000000001
100
AcDbArc
 50
270.0
 51
279.8099400488
  0
ARC
  5
18D
330
1F
100
AcDbEntity
  8
0
  6
Continuous
 62
     7
370
    25
100
AcDbCircle
 10
-562.6382400481
 20
169.2710475985
 30
0.0
 40
200.0
100
AcDbArc
 50
80.1900599512
 51
90.0
  0
ARC
  5
18E
330
1F
100
AcDbEntity
  8
0
  6
Continuous
 62
     7
370
    25
100
AcDbCircle
 10
-682.6382400481
 20
53.2710475985
 30
0.0
 40
200.0
100
AcDbArc
 50
260.1900599512
 51
270.0
  0
ARC
  5
18F
330
1F
100
AcDbEntity
  8
0
  6
Continuous
 62
     7
370
    25
100
AcDbCircle
 10
-682.6382400481
 20
169.2710475985
 30
0.0
 40
200.0
100
AcDbArc
 50
90.0
 51
99.8099400488
  0
LINE
  5
190
330
1F
100
AcDbEntity
  8
0
  6
Continuous
 62
     7
370
    25
100
AcDbLine
 10
-755.2950942976
 20
-145.0858066509
 30
0.0
 11
-751.9813857986
 21
-141.772098152
 31
0.0
  0
LINE
  5
191
330
1F
100
AcDbEntity
  8
0
  6
Continuous
 62
     7
370
    25
100
AcDbLine
 10
-751.9813857986
 20
364.3141933491
 30
0.0
 11
-755.2950942976
 21
367.627901848
 31
0.0
  0
LINE
  5
192
330
1F
100
AcDbEntity
  8
0
  6
Continuous
 62
     7
370
    25
100
AcDbLine
 10
-489.9813857986
 20
367.627901848
 30
0.0
 11
-493.2950942976
 21
364.3141933491
 31
0.0
  0
LINE
  5
193
330
1F
100
AcDbEntity
  8
0
  6
Continuous
 62
     7
370
    25
100
AcDbLine
 10
-493.2950942976
 20
-141.772098152
 30
0.0
 11
-489.9813857986
 21
-145.0858066509
 31
0.0
  0
ARC
  5
194
330
1F
100
AcDbEntity
  8
0
  6
Continuous
 62
     7
370
    25
100
AcDbCircle
 10
-531.117856493
 20
351.5660431978
 30
0.0
 40
14.99999999999996
100
AcDbArc
 50
53.1508849918
 51
80.1900599512
  0
ARC
  5
195
330
1F
100
AcDbEntity
  8
0
  6
Continuous
 62
     7
370
    25
100
AcDbCircle
 10
-531.117856493
 20
-129.0239480007
 30
0.0
 40
14.99999999999998
100
AcDbArc
 50
279.8099400488
 51
306.8491150082
  0
ARC
  5
196
330
1F
100
AcDbEntity
  8
0
  6
Continuous
 62
     7
370
    25
100
AcDbCircle
 10
-714.1586236031
 20
351.5660431978
 30
0.0
 40
15.0
100
AcDbArc
 50
99.8099400488
 51
126.8491150082
  0
ARC
  5
197
330
1F
100
AcDbEntity
  8
0
  6
Continuous
 62
     7
370
    25
100
AcDbCircle
 10
-714.1586236031
 20
-129.0239480007
 30
0.0
 40
15.00000000000002
100
AcDbArc
 50
233.1508849918
 51
260.1900599512
  0
ARC
  5
198
330
1F
100
AcDbEntity
  8
0
  6
Continuous
 62
     7
370
    25
100
AcDbCircle
 10
-498.951948547
 20
-147.4289524015
 30
0.0
 40
8.0
100
AcDbArc
 50
45.0
 51
90.0
  0
ARC
  5
199
330
1F
100
AcDbEntity
  8
0
  6
Continuous
 62
     7
370
    25
100
AcDbCircle
 10
-498.951948547
 20
369.9710475985
 30
0.0
 40
8.000000000000057
100
AcDbArc
 50
270.0
 51
315.0
  0
ARC
  5
19A
330
1F
100
AcDbEntity
  8
0
  6
Continuous
 62
     7
370
    25
100
AcDbCircle
 10
-746.3245315491
 20
-147.4289524015
 30
0.0
 40
8.0
100
AcDbArc
 50
90.0
 51
135.0
  0
ARC
  5
19B
330
1F
100
AcDbEntity
  8
0
  6
Continuous
 62
     7
370
    25
100
AcDbCircle
 10
-746.3245315491
 20
369.9710475985
 30
0.0
 40
8.000000000000057
100
AcDbArc
 50
225.0
 51
270.0
  0
ARC
  5
19C
330
1F
100
AcDbEntity
  8
0
  6
Continuous
 62
     7
370
    25
100
AcDbCircle
 10
-727.951948547
 20
-147.4289524015
 30
0.0
 40
8.0
100
AcDbArc
 50
53.1508849918
 51
90.0
  0
ARC
  5
19D
330
1F
100
AcDbEntity
  8
0
  6
Continuous
 62
     7
370
    25
100
AcDbCircle
 10
-727.951948547
 20
369.9710475985
 30
0.0
 40
8.000000000000057
100
AcDbArc
 50
270.0
 51
306.8491150082
  0
ARC
  5
19E
330
1F
100
AcDbEntity
  8
0
  6
Continuous
 62
     7
370
    25
100
AcDbCircle
 10
-517.3245315491
 20
-147.4289524015
 30
0.0
 40
8.0
100
AcDbArc
 50
90.0
 51
126.8491150082
  0
ARC
  5
19F
330
1F
100
AcDbEntity
  8
0
  6
Continuous
 62
     7
370
    25
100
AcDbCircle
 10
-517.3245315491
 20
369.9710475985
 30
0.0
 40
8.000000000000057
100
AcDbArc
 50
233.1508849918
 51
270.0
  0
LINE
  5
1A0
330
1F
100
AcDbEntity
  8
0
  6
Continuous
 62
     7
370
    25
100
AcDbLine
 10
-517.3245315491
 20
-139.4289524015
 30
0.0
 11
-498.951948547
 21
-139.4289524015
 31
0.0
  0
LINE
  5
1A1
330
1F
100
AcDbEntity
  8
0
  6
Continuous
 62
     7
370
    25
100
AcDbLine
 10
-498.951948547
 20
361.9710475985
 30
0.0
 11
-517.3245315491
 21
361.9710475985
 31
0.0
  0
LINE
  5
1A2
330
1F
100
AcDbEntity
  8
0
  6
Continuous
 62
     7
370
    25
100
AcDbLine
 10
-746.3245315491
 20
-139.4289524015
 30
0.0
 11
-727.951948547
 21
-139.4289524015
 31
0.0
  0
LINE
  5
1A3
330
1F
100
AcDbEntity
  8
0
  6
Continuous
 62
     7
370
    25
100
AcDbLine
 10
-727.951948547
 20
361.9710475985
 30
0.0
 11
-746.3245315491
 21
361.9710475985
 31
0.0
  0
LINE
  5
1A4
330
1F
100
AcDbEntity
  8
0
  6
Continuous
 62
     7
370
    25
100
AcDbLine
 10
-760.5598804447
 20
361.1043193382
 30
0.0
 11
-760.6151558921
 21
364.2710475985
 31
0.0
  0
LINE
  5
1A5
330
1F
100
AcDbEntity
  8
0
  6
Continuous
 62
     7
370
    25
100
AcDbLine
 10
-774.661324204
 20
364.2710475985
 30
0.0
 11
-774.7162463986
 21
361.1245571764
 31
0.0
  0
LINE
  5
1A6
330
1F
100
AcDbEntity
  8
0
  6
Continuous
 62
     7
370
    25
100
AcDbLine
 10
-470.5602336975
 20
361.1245571764
 30
0.0
 11
-470.6151558921
 21
364.2710475985
 31
0.0
  0
LINE
  5
1A7
330
1F
100
AcDbEntity
  8
0
  6
Continuous
 62
     7
370
    25
100
AcDbLine
 10
-484.661324204
 20
364.2710475985
 30
0.0
 11
-484.7165996514
 21
361.1043193382
 31
0.0
  0
LINE
  5
1A8
330
1F
100
AcDbEntity
  8
0
  6
Continuous
 62
     7
370
    25
100
AcDbLine
 10
-760.951948547
 20
369.9710475985
 30
0.0
 11
-774.6382400481
 21
369.9710475985
 31
0.0
  0
LINE
  5
1A9
330
1F
100
AcDbEntity
  8
0
  6
Continuous
 62
     7
370
    25
100
AcDbLine
 10
-470.6382400481
 20
369.9710475985
 30
0.0
 11
-484.3245315491
 21
369.9710475985
 31
0.0
  0
LINE
  5
1AA
330
1F
100
AcDbEntity
  8
0
  6
Continuous
 62
     7
370
    25
100
AcDbLine
 10
-462.6382400481
 20
111.2710475985
 30
0.0
 11
-462.6382400481
 21
-139.4289524015
 31
0.0
  0
LINE
  5
1AB
330
1F
100
AcDbEntity
  8
0
  6
Continuous
 62
     7
370
    25
100
AcDbLine
 10
-462.6382400481
 20
361.9710475985
 30
0.0
 11
-462.6382400481
 21
111.2710475985
 31
0.0
  0
SPLINE
  5
1AC
330
1F
100
AcDbEntity
  8
0
  6
Continuous
 62
     7
370
    25
100
AcDbSpline
210
0.0
220
0.0
230
1.0
 70
     8
 71
     3
 72
    28
 73
    24
 74
     0
 42
0.00000001
 43
0.00000001
 40
0.0
 40
0.0
 40
0.0
 40
0.0
 40
0.1249999999999952
 40
0.1249999999999952
 40
0.1874999999999941
 40
0.1874999999999941
 40
0.249999999999993
 40
0.249999999999993
 40
0.3749999999999947
 40
0.3749999999999947
 40
0.4374999999999956
 40
0.4374999999999956
 40
0.4999999999999964
 40
0.4999999999999964
 40
0.6250000000000006
 40
0.6250000000000006
 40
0.7500000000000036
 40
0.7500000000000036
 40
0.8125000000000029
 40
0.8125000000000029
 40
0.8750000000000022
 40
0.8750000000000022
 40
1.0
 40
1.0
 40
1.0
 40
1.0
 10
-470.6382400480641
 20
364.513345430928
 30
0.0
 10
-470.1524817739128
 20
364.413962377433
 30
0.0
 10
-469.7315151586893
 20
364.2626995371055
 30
0.0
 10
-469.1812619070742
 20
363.997587500616
 30
0.0
 10
-469.0115908249932
 20
363.9025908248367
 30
0.0
 10
-468.6991797628747
 20
363.7040030928596
 30
0.0
 10
-468.557162412084
 20
363.6007582487774
 30
0.0
 10
-468.1782586672651
 20
363.2904657903669
 30
0.0
 10
-467.9849823895876
 20
363.0813067464463
 30
0.0
 10
-467.784180930139
 20
362.7841872935826
 30
0.0
 10
-467.732326028247
 20
362.6876446604841
 30
0.0
 10
-467.6615017606707
 20
362.5062896680234
 30
0.0
 10
-467.6421100796531
 20
362.4209633503265
 30
0.0
 10
-467.6320666842121
 20
362.1823473973064
 30
0.0
 10
-467.6890794509854
 20
362.0470197613675
 30
0.0
 10
-467.9425149153303
 20
361.8178986192476
 30
0.0
 10
-468.1352139819476
 20
361.7276339375481
 30
0.0
 10
-468.518643445724
 20
361.6060408705327
 30
0.0
 10
-468.6623517013164
 20
361.5676613048164
 30
0.0
 10
-468.9821141481992
 20
361.490186979304
 30
0.0
 10
-469.158569900573
 20
361.4510178199592
 30
0.0
 10
-469.7256651781776
 20
361.3263702282353
 30
0.0
 10
-470.156754209157
 20
361.2332638225026
 30
0.0
 10
-470.6382400480641
 20
361.1064305781684
 30
0.0
  0
SPLINE
  5
1AD
330
1F
100
AcDbEntity
  8
0
  6
Continuous
 62
     7
370
    25
100
AcDbSpline
210
0.0
220
0.0
230
1.0
 70
     8
 71
     3
 72
    28
 73
    24
 74
     0
 42
0.00000001
 43
0.00000001
 40
0.0
 40
0.0
 40
0.0
 40
0.0
 40
0.1249999999999952
 40
0.1249999999999952
 40
0.1874999999999941
 40
0.1874999999999941
 40
0.249999999999993
 40
0.249999999999993
 40
0.3749999999999947
 40
0.3749999999999947
 40
0.4374999999999956
 40
0.4374999999999956
 40
0.4999999999999964
 40
0.4999999999999964
 40
0.6250000000000006
 40
0.6250000000000006
 40
0.7500000000000036
 40
0.7500000000000036
 40
0.8125000000000029
 40
0.8125000000000029
 40
0.8750000000000022
 40
0.8750000000000022
 40
1.0
 40
1.0
 40
1.0
 40
1.0
 10
-774.6382400480642
 20
364.513345430928
 30
0.0
 10
-775.1239983222155
 20
364.413962377433
 30
0.0
 10
-775.544964937439
 20
364.2626995371055
 30
0.0
 10
-776.095218189054
 20
363.997587500616
 30
0.0
 10
-776.264889271135
 20
363.9025908248367
 30
0.0
 10
-776.5773003332536
 20
363.7040030928596
 30
0.0
 10
-776.7193176840441
 20
363.6007582487774
 30
0.0
 10
-777.0982214288631
 20
363.2904657903669
 30
0.0
 10
-777.2914977065406
 20
363.0813067464463
 30
0.0
 10
-777.4922991659893
 20
362.7841872935826
 30
0.0
 10
-777.5441540678811
 20
362.6876446604841
 30
0.0
 10
-777.6149783354575
 20
362.5062896680234
 30
0.0
 10
-777.6343700164751
 20
362.4209633503265
 30
0.0
 10
-777.6444134119162
 20
362.1823473973064
 30
0.0
 10
-777.5874006451429
 20
362.0470197613675
 30
0.0
 10
-777.3339651807979
 20
361.8178986192476
 30
0.0
 10
-777.1412661141807
 20
361.7276339375481
 30
0.0
 10
-776.7578366504042
 20
361.6060408705327
 30
0.0
 10
-776.6141283948118
 20
361.5676613048164
 30
0.0
 10
-776.2943659479291
 20
361.490186979304
 30
0.0
 10
-776.1179101955552
 20
361.4510178199592
 30
0.0
 10
-775.5508149179507
 20
361.3263702282353
 30
0.0
 10
-775.1197258869712
 20
361.2332638225026
 30
0.0
 10
-774.6382400480642
 20
361.1064305781684
 30
0.0
  0
LINE
  5
1AE
330
1F
100
AcDbEntity
  8
0
  6
Continuous
 62
     7
370
    25
100
AcDbLine
 10
-782.6382400481
 20
-139.4289524015
 30
0.0
 11
-782.6382400481
 21
361.9710475985
 31
0.0
  0
SPLINE
  5
1AF
330
1F
100
AcDbEntity
  8
0
  6
Continuous
 62
     7
370
    25
100
AcDbSpline
210
0.0
220
0.0
230
1.0
 70
     8
 71
     3
 72
    26
 73
    22
 74
     0
 42
0.00000001
 43
0.00000001
 40
0.0
 40
0.0
 40
0.0
 40
0.0
 40
0.1249999999999983
 40
0.1249999999999983
 40
0.1874999999999994
 40
0.1874999999999994
 40
0.2500000000000006
 40
0.2500000000000006
 40
0.3749999999999988
 40
0.3749999999999988
 40
0.499999999999997
 40
0.499999999999997
 40
0.6249999999999952
 40
0.6249999999999952
 40
0.6874999999999941
 40
0.6874999999999941
 40
0.749999999999993
 40
0.749999999999993
 40
0.8749999999999966
 40
0.8749999999999966
 40
1.0
 40
1.0
 40
1.0
 40
1.0
 10
-484.3245315490793
 20
361.0270910789149
 30
0.0
 10
-483.8579999947998
 20
360.9138237116302
 30
0.0
 10
-483.3582571125888
 20
360.8126248494503
 30
0.0
 10
-482.559843259296
 20
360.6794878679866
 30
0.0
 10
-482.2855185380913
 20
360.6382374166937
 30
0.0
 10
-481.720003989831
 20
360.5623223213321
 30
0.0
 10
-481.4274030402345
 20
360.5275428548766
 30
0.0
 10
-480.5414217805103
 20
360.4355881034691
 30
0.0
 10
-479.9359347180689
 20
360.3900022388484
 30
0.0
 10
-478.6954198887966
 20
360.3308039957515
 30
0.0
 10
-478.0542066369766
 20
360.3174673946708
 30
0.0
 10
-476.7934455648606
 20
360.3250668509945
 30
0.0
 10
-476.1691507481746
 20
360.3454669493673
 30
0.0
 10
-475.2418985659329
 20
360.400901722381
 30
0.0
 10
-474.9330606206265
 20
360.4236904503418
 30
0.0
 10
-474.3309998974647
 20
360.4766488594512
 30
0.0
 10
-474.0365027904317
 20
360.5068582061572
 30
0.0
 10
-473.172066634739
 20
360.6082050276989
 30
0.0
 10
-472.6203186385462
 20
360.6901071028672
 30
0.0
 10
-471.5713556479457
 20
360.8813666778542
 30
0.0
 10
-471.0857340807817
 20
360.9885514726922
 30
0.0
 10
-470.6382400480641
 20
361.1064305781684
 30
0.0
  0
SPLINE
  5
1B0
330
1F
100
AcDbEntity
  8
0
  6
Continuous
 62
     7
370
    25
100
AcDbSpline
210
0.0
220
0.0
230
1.0
 70
     8
 71
     3
 72
    32
 73
    28
 74
     0
 42
0.00000001
 43
0.00000001
 40
0.0
 40
0.0
 40
0.0
 40
0.0
 40
0.1250000000000027
 40
0.1250000000000027
 40
0.1875000000000043
 40
0.1875000000000043
 40
0.2500000000000059
 40
0.2500000000000059
 40
0.3750000000000082
 40
0.3750000000000082
 40
0.4375000000000081
 40
0.4375000000000081
 40
0.5000000000000081
 40
0.5000000000000081
 40
0.5625000000000069
 40
0.5625000000000069
 40
0.6250000000000057
 40
0.6250000000000057
 40
0.7500000000000013
 40
0.7500000000000013
 40
0.812500000000001
 40
0.812500000000001
 40
0.8750000000000007
 40
0.8750000000000007
 40
0.9375000000000004
 40
0.9375000000000004
 40
1.0
 40
1.0
 40
1.0
 40
1.0
 10
-484.3245315490793
 20
361.0270910789148
 30
0.0
 10
-484.8539687897543
 20
361.1556310712125
 30
0.0
 10
-485.3274106702026
 20
361.2427887451152
 30
0.0
 10
-485.9509621883406
 20
361.3538485093455
 30
0.0
 10
-486.1442993487528
 20
361.3874848029279
 30
0.0
 10
-486.5004297133872
 20
361.4545593083637
 30
0.0
 10
-486.661239897849
 20
361.4876906280343
 30
0.0
 10
-487.0878771751406
 20
361.5941821871447
 30
0.0
 10
-487.3007972648461
 20
361.6754938259553
 30
0.0
 10
-487.5115977657062
 20
361.8425211150151
 30
0.0
 10
-487.5630472031514
 20
361.9054425022343
 30
0.0
 10
-487.6278500917059
 20
362.0452445160177
 30
0.0
 10
-487.6416463516092
 20
362.1224274280811
 30
0.0
 10
-487.6334228061071
 20
362.291473927422
 30
0.0
 10
-487.6114060033332
 20
362.3833313632258
 30
0.0
 10
-487.5317245199577
 20
362.5805067530536
 30
0.0
 10
-487.4738082311882
 20
362.6858952360885
 30
0.0
 10
-487.2512440713845
 20
363.0110045847851
 30
0.0
 10
-487.0379276755187
 20
363.2421086934241
 30
0.0
 10
-486.6189552112098
 20
363.5856959751085
 30
0.0
 10
-486.4620820584061
 20
363.6998349675564
 30
0.0
 10
-486.1196290671705
 20
363.9174011151272
 30
0.0
 10
-485.9334684936499
 20
364.0213973068309
 30
0.0
 10
-485.529923289952
 20
364.2141778061243
 30
0.0
 10
-485.3125553855874
 20
364.3029971171709
 30
0.0
 10
-484.8434794915337
 20
364.4583652505235
 30
0.0
 10
-484.5911994300666
 20
364.5248851806689
 30
0.0
 10
-484.3245315490793
 20
364.5746435720432
 30
0.0
  0
SPLINE
  5
1B1
330
1F
100
AcDbEntity
  8
0
  6
Continuous
 62
     7
370
    25
100
AcDbSpline
210
0.0
220
0.0
230
1.0
 70
     8
 71
     3
 72
    26
 73
    22
 74
     0
 42
0.00000001
 43
0.00000001
 40
0.0
 40
0.0
 40
0.0
 40
0.0
 40
0.1249999999999983
 40
0.1249999999999983
 40
0.1874999999999994
 40
0.1874999999999994
 40
0.2500000000000006
 40
0.2500000000000006
 40
0.3749999999999988
 40
0.3749999999999988
 40
0.499999999999997
 40
0.499999999999997
 40
0.6249999999999952
 40
0.6249999999999952
 40
0.6874999999999941
 40
0.6874999999999941
 40
0.749999999999993
 40
0.749999999999993
 40
0.8749999999999966
 40
0.8749999999999966
 40
1.0
 40
1.0
 40
1.0
 40
1.0
 10
-760.9519485470488
 20
361.0270910789149
 30
0.0
 10
-761.4184801013284
 20
360.9138237116302
 30
0.0
 10
-761.9182229835395
 20
360.8126248494503
 30
0.0
 10
-762.7166368368322
 20
360.6794878679866
 30
0.0
 10
-762.9909615580369
 20
360.6382374166937
 30
0.0
 10
-763.5564761062973
 20
360.5623223213321
 30
0.0
 10
-763.8490770558936
 20
360.5275428548766
 30
0.0
 10
-764.7350583156178
 20
360.4355881034691
 30
0.0
 10
-765.3405453780592
 20
360.3900022388484
 30
0.0
 10
-766.5810602073317
 20
360.3308039957515
 30
0.0
 10
-767.2222734591517
 20
360.3174673946708
 30
0.0
 10
-768.4830345312677
 20
360.3250668509945
 30
0.0
 10
-769.1073293479536
 20
360.3454669493673
 30
0.0
 10
-770.0345815301953
 20
360.400901722381
 30
0.0
 10
-770.3434194755017
 20
360.4236904503418
 30
0.0
 10
-770.9454801986635
 20
360.4766488594512
 30
0.0
 10
-771.2399773056966
 20
360.5068582061572
 30
0.0
 10
-772.1044134613893
 20
360.6082050276989
 30
0.0
 10
-772.6561614575821
 20
360.6901071028672
 30
0.0
 10
-773.7051244481825
 20
360.8813666778542
 30
0.0
 10
-774.1907460153466
 20
360.9885514726922
 30
0.0
 10
-774.6382400480642
 20
361.1064305781684
 30
0.0
  0
SPLINE
  5
1B2
330
1F
100
AcDbEntity
  8
0
  6
Continuous
 62
     7
370
    25
100
AcDbSpline
210
0.0
220
0.0
230
1.0
 70
     8
 71
     3
 72
    32
 73
    28
 74
     0
 42
0.00000001
 43
0.00000001
 40
0.0
 40
0.0
 40
0.0
 40
0.0
 40
0.1250000000000027
 40
0.1250000000000027
 40
0.1875000000000043
 40
0.1875000000000043
 40
0.2500000000000059
 40
0.2500000000000059
 40
0.3750000000000082
 40
0.3750000000000082
 40
0.4375000000000081
 40
0.4375000000000081
 40
0.5000000000000081
 40
0.5000000000000081
 40
0.5625000000000069
 40
0.5625000000000069
 40
0.6250000000000057
 40
0.6250000000000057
 40
0.7500000000000013
 40
0.7500000000000013
 40
0.812500000000001
 40
0.812500000000001
 40
0.8750000000000007
 40
0.8750000000000007
 40
0.9375000000000004
 40
0.9375000000000004
 40
1.0
 40
1.0
 40
1.0
 40
1.0
 10
-760.9519485470488
 20
361.0270910789148
 30
0.0
 10
-760.422511306374
 20
361.1556310712125
 30
0.0
 10
-759.9490694259257
 20
361.2427887451152
 30
0.0
 10
-759.3255179077877
 20
361.3538485093455
 30
0.0
 10
-759.1321807473754
 20
361.3874848029279
 30
0.0
 10
-758.776050382741
 20
361.4545593083637
 30
0.0
 10
-758.6152401982791
 20
361.4876906280343
 30
0.0
 10
-758.1886029209877
 20
361.5941821871447
 30
0.0
 10
-757.9756828312821
 20
361.6754938259553
 30
0.0
 10
-757.7648823304221
 20
361.8425211150151
 30
0.0
 10
-757.7134328929769
 20
361.9054425022343
 30
0.0
 10
-757.6486300044224
 20
362.0452445160177
 30
0.0
 10
-757.6348337445191
 20
362.1224274280811
 30
0.0
 10
-757.6430572900211
 20
362.291473927422
 30
0.0
 10
-757.6650740927951
 20
362.3833313632258
 30
0.0
 10
-757.7447555761705
 20
362.5805067530536
 30
0.0
 10
-757.80267186494
 20
362.6858952360885
 30
0.0
 10
-758.0252360247437
 20
363.0110045847851
 30
0.0
 10
-758.2385524206096
 20
363.2421086934241
 30
0.0
 10
-758.6575248849184
 20
363.5856959751085
 30
0.0
 10
-758.8143980377221
 20
363.6998349675564
 30
0.0
 10
-759.1568510289577
 20
363.9174011151272
 30
0.0
 10
-759.3430116024783
 20
364.0213973068309
 30
0.0
 10
-759.7465568061762
 20
364.2141778061243
 30
0.0
 10
-759.9639247105408
 20
364.3029971171709
 30
0.0
 10
-760.4330006045946
 20
364.4583652505235
 30
0.0
 10
-760.6852806660615
 20
364.5248851806689
 30
0.0
 10
-760.9519485470488
 20
364.5746435720432
 30
0.0
  0
SPLINE
  5
1B3
330
1F
100
AcDbEntity
  8
0
  6
Continuous
 62
     7
370
    25
100
AcDbSpline
210
0.0
220
0.0
230
1.0
 70
     8
 71
     3
 72
    26
 73
    22
 74
     0
 42
0.00000001
 43
0.00000001
 40
0.0
 40
0.0
 40
0.0
 40
0.0
 40
0.1250000000000006
 40
0.1250000000000006
 40
0.1875000000000008
 40
0.1875000000000008
 40
0.2500000000000011
 40
0.2500000000000011
 40
0.3750000000000011
 40
0.3750000000000011
 40
0.5000000000000011
 40
0.5000000000000011
 40
0.6250000000000011
 40
0.6250000000000011
 40
0.6875000000000009
 40
0.6875000000000009
 40
0.7500000000000008
 40
0.7500000000000008
 40
0.8750000000000004
 40
0.8750000000000004
 40
1.0
 40
1.0
 40
1.0
 40
1.0
 10
-774.6382400480642
 20
364.513345430928
 30
0.0
 10
-774.1889124862433
 20
364.6052749923775
 30
0.0
 10
-773.7044971065336
 20
364.6859974463596
 30
0.0
 10
-772.9268356254911
 20
364.7917184393776
 30
0.0
 10
-772.6590526195225
 20
364.8243793452762
 30
0.0
 10
-772.1059450894143
 20
364.8845623024914
 30
0.0
 10
-771.8191691805187
 20
364.9121854022866
 30
0.0
 10
-770.9486956718173
 20
364.985794900025
 30
0.0
 10
-770.3516500019376
 20
365.0231100865564
 30
0.0
 10
-769.1245189387054
 20
365.0752677807581
 30
0.0
 10
-768.4880763172216
 20
365.0899910290199
 30
0.0
 10
-767.2302725426256
 20
365.095466792844
 30
0.0
 10
-766.6049716854429
 20
365.0866167630015
 30
0.0
 10
-765.6724575493868
 20
365.0557029760417
 30
0.0
 10
-765.3608940331183
 20
365.0423340679348
 30
0.0
 10
-764.7506632866233
 20
365.0099741953219
 30
0.0
 10
-764.4514773632351
 20
364.9910035813967
 30
0.0
 10
-763.5712410746507
 20
364.9257982320244
 30
0.0
 10
-763.007359719801
 20
364.8713562329929
 30
0.0
 10
-761.9267357044992
 20
364.7388893150737
 30
0.0
 10
-761.4203328983353
 20
364.6620408685553
 30
0.0
 10
-760.9519485470488
 20
364.5746435720432
 30
0.0
  0
SPLINE
  5
1B4
330
1F
100
AcDbEntity
  8
0
  6
Continuous
 62
     7
370
    25
100
AcDbSpline
210
0.0
220
0.0
230
1.0
 70
     8
 71
     3
 72
    26
 73
    22
 74
     0
 42
0.00000001
 43
0.00000001
 40
0.0
 40
0.0
 40
0.0
 40
0.0
 40
0.1250000000000006
 40
0.1250000000000006
 40
0.1875000000000008
 40
0.1875000000000008
 40
0.2500000000000011
 40
0.2500000000000011
 40
0.3750000000000011
 40
0.3750000000000011
 40
0.5000000000000011
 40
0.5000000000000011
 40
0.6250000000000011
 40
0.6250000000000011
 40
0.6875000000000009
 40
0.6875000000000009
 40
0.7500000000000008
 40
0.7500000000000008
 40
0.8750000000000004
 40
0.8750000000000004
 40
1.0
 40
1.0
 40
1.0
 40
1.0
 10
-470.6382400480641
 20
364.513345430928
 30
0.0
 10
-471.0875676098849
 20
364.6052749923775
 30
0.0
 10
-471.5719829895946
 20
364.6859974463596
 30
0.0
 10
-472.3496444706371
 20
364.7917184393776
 30
0.0
 10
-472.6174274766057
 20
364.8243793452762
 30
0.0
 10
-473.170535006714
 20
364.8845623024914
 30
0.0
 10
-473.4573109156096
 20
364.9121854022866
 30
0.0
 10
-474.3277844243109
 20
364.985794900025
 30
0.0
 10
-474.9248300941907
 20
365.0231100865564
 30
0.0
 10
-476.1519611574229
 20
365.0752677807581
 30
0.0
 10
-476.7884037789066
 20
365.0899910290199
 30
0.0
 10
-478.0462075535027
 20
365.095466792844
 30
0.0
 10
-478.6715084106853
 20
365.0866167630015
 30
0.0
 10
-479.6040225467415
 20
365.0557029760417
 30
0.0
 10
-479.91558606301
 20
365.0423340679348
 30
0.0
 10
-480.5258168095049
 20
365.0099741953219
 30
0.0
 10
-480.8250027328932
 20
364.9910035813967
 30
0.0
 10
-481.7052390214776
 20
364.9257982320244
 30
0.0
 10
-482.2691203763272
 20
364.8713562329929
 30
0.0
 10
-483.3497443916291
 20
364.7388893150737
 30
0.0
 10
-483.8561471977929
 20
364.6620408685553
 30
0.0
 10
-484.3245315490793
 20
364.5746435720432
 30
0.0
  0
LINE
  5
1B5
330
1F
100
AcDbEntity
  8
0
  6
Continuous
 62
     7
370
    25
100
AcDbLine
 10
-767.6382400481
 20
364.2710475985
 30
0.0
 11
-760.6151558921
 21
364.2710475985
 31
0.0
  0
LINE
  5
1B6
330
1F
100
AcDbEntity
  8
0
  6
Continuous
 62
     7
370
    25
100
AcDbLine
 10
-774.661324204
 20
364.2710475985
 30
0.0
 11
-767.6382400481
 21
364.2710475985
 31
0.0
  0
LINE
  5
1B7
330
1F
100
AcDbEntity
  8
0
  6
Continuous
 62
     7
370
    25
100
AcDbLine
 10
-477.6382400481
 20
364.2710475985
 30
0.0
 11
-484.661324204
 21
364.2710475985
 31
0.0
  0
LINE
  5
1B8
330
1F
100
AcDbEntity
  8
0
  6
Continuous
 62
     7
370
    25
100
AcDbLine
 10
-470.6151558921
 20
364.2710475985
 30
0.0
 11
-477.6382400481
 21
364.2710475985
 31
0.0
  0
LINE
  5
1B9
330
1F
100
AcDbEntity
  8
0
  6
Continuous
 62
     1
370
    25
100
AcDbLine
 10
-470.6382400481
 20
-147.4289524015
 30
0.0
 11
-470.6382400481
 21
361.1064305782
 31
0.0
  0
LINE
  5
1BA
330
1F
100
AcDbEntity
  8
0
  6
Continuous
 62
     1
370
    25
100
AcDbLine
 10
-470.6382400481
 20
364.5133454309
 30
0.0
 11
-470.6382400481
 21
369.9710475985
 31
0.0
  0
LINE
  5
1BB
330
1F
100
AcDbEntity
  8
0
  6
Continuous
 62
     1
370
    25
100
AcDbLine
 10
-774.6382400481
 20
361.1064305782
 30
0.0
 11
-774.6382400481
 21
-147.4289524015
 31
0.0
  0
LINE
  5
1BC
330
1F
100
AcDbEntity
  8
0
  6
Continuous
 62
     1
370
    25
100
AcDbLine
 10
-774.6382400481
 20
369.9710475985
 30
0.0
 11
-774.6382400481
 21
364.5133454309
 31
0.0
  0
LINE
  5
1BD
330
1F
100
AcDbEntity
  8
0
  6
Continuous
 62
     1
370
    25
100
AcDbLine
 10
-484.3245315491
 20
361.0270910789
 30
0.0
 11
-484.3245315491
 21
-147.4289524015
 31
0.0
  0
LINE
  5
1BE
330
1F
100
AcDbEntity
  8
0
  6
Continuous
 62
     1
370
    25
100
AcDbLine
 10
-489.9813857986
 20
111.2710475985
 30
0.0
 11
-489.9813857986
 21
367.627901848
 31
0.0
  0
LINE
  5
1BF
330
1F
100
AcDbEntity
  8
0
  6
Continuous
 62
     1
370
    25
100
AcDbLine
 10
-489.9813857986
 20
-145.0858066509
 30
0.0
 11
-489.9813857986
 21
111.2710475985
 31
0.0
  0
LINE
  5
1C0
330
1F
100
AcDbEntity
  8
0
  6
Continuous
 62
     1
370
    25
100
AcDbLine
 10
-484.3245315491
 20
369.9710475985
 30
0.0
 11
-484.3245315491
 21
364.574643572
 31
0.0
  0
LINE
  5
1C1
330
1F
100
AcDbEntity
  8
0
  6
Continuous
 62
     1
370
    25
100
AcDbLine
 10
-760.951948547
 20
-147.4289524015
 30
0.0
 11
-760.951948547
 21
361.0270910789
 31
0.0
  0
LINE
  5
1C2
330
1F
100
AcDbEntity
  8
0
  6
Continuous
 62
     1
370
    25
100
AcDbLine
 10
-760.951948547
 20
364.574643572
 30
0.0
 11
-760.951948547
 21
369.9710475985
 31
0.0
  0
LINE
  5
1C3
330
1F
100
AcDbEntity
  8
0
  6
Continuous
 62
     1
370
    25
100
AcDbLine
 10
-755.2950942976
 20
367.627901848
 30
0.0
 11
-755.2950942976
 21
-145.0858066509
 31
0.0
  0
LINE
  5
1C4
330
1F
100
AcDbEntity
  8
0
  6
Continuous
 62
     1
370
    25
100
AcDbLine
 10
-562.6382400481
 20
111.2710475985
 30
0.0
 11
-562.6382400481
 21
369.2710475985
 31
0.0
  0
LINE
  5
1C5
330
1F
100
AcDbEntity
  8
0
  6
Continuous
 62
     1
370
    25
100
AcDbLine
 10
-562.6382400481
 20
-146.7289524015
 30
0.0
 11
-562.6382400481
 21
111.2710475985
 31
0.0
  0
LINE
  5
1C6
330
1F
100
AcDbEntity
  8
0
  6
Continuous
 62
     1
370
    25
100
AcDbLine
 10
-682.6382400481
 20
111.2710475985
 30
0.0
 11
-682.6382400481
 21
369.2710475985
 31
0.0
  0
LINE
  5
1C7
330
1F
100
AcDbEntity
  8
0
  6
Continuous
 62
     1
370
    25
100
AcDbLine
 10
-682.6382400481
 20
-146.7289524015
 30
0.0
 11
-682.6382400481
 21
111.2710475985
 31
0.0
  0
LINE
  5
1C8
330
1F
100
AcDbEntity
  8
0
  6
Continuous
 62
     1
370
    25
100
AcDbLine
 10
-528.5621497183
 20
111.2710475985
 30
0.0
 11
-528.5621497183
 21
366.3467185167
 31
0.0
  0
LINE
  5
1C9
330
1F
100
AcDbEntity
  8
0
  6
Continuous
 62
     1
370
    25
100
AcDbLine
 10
-528.5621497183
 20
-143.8046233196
 30
0.0
 11
-528.5621497183
 21
111.2710475985
 31
0.0
  0
LINE
  5
1CA
330
1F
100
AcDbEntity
  8
0
  6
Continuous
 62
     1
370
    25
100
AcDbLine
 10
-716.7143303778
 20
366.3467185167
 30
0.0
 11
-716.7143303778
 21
-143.8046233196
 31
0.0
  0
LINE
  5
1CB
330
1F
100
AcDbEntity
  8
0
  6
Continuous
 62
     1
370
    25
100
AcDbLine
 10
-751.9813857986
 20
111.2710475985
 30
0.0
 11
-751.9813857986
 21
364.3141933491
 31
0.0
  0
LINE
  5
1CC
330
1F
100
AcDbEntity
  8
0
  6
Continuous
 62
     1
370
    25
100
AcDbLine
 10
-751.9813857986
 20
-141.772098152
 30
0.0
 11
-751.9813857986
 21
111.2710475985
 31
0.0
  0
LINE
  5
1CD
330
1F
100
AcDbEntity
  8
0
  6
Continuous
 62
     1
370
    25
100
AcDbLine
 10
-493.2950942976
 20
364.3141933491
 30
0.0
 11
-493.2950942976
 21
-141.772098152
 31
0.0
  0
LINE
  5
1CE
330
1F
100
AcDbEntity
  8
0
  6
Continuous
 62
     1
370
    25
100
AcDbLine
 10
-522.1222097905
 20
363.5693069374
 30
0.0
 11
-522.1222097905
 21
-141.0272117403
 31
0.0
  0
LINE
  5
1CF
330
1F
100
AcDbEntity
  8
0
  6
Continuous
 62
     1
370
    25
100
AcDbLine
 10
-723.1542703057
 20
111.2710475985
 30
0.0
 11
-723.1542703057
 21
363.5693069374
 31
0.0
  0
LINE
  5
1D0
330
1F
100
AcDbEntity
  8
0
  6
Continuous
 62
     1
370
    25
100
AcDbLine
 10
-723.1542703057
 20
-141.0272117403
 30
0.0
 11
-723.1542703057
 21
111.2710475985
 31
0.0
  0
LINE
  5
1D1
330
1F
100
AcDbEntity
  8
0
  6
Continuous
 62
     1
370
    25
100
AcDbLine
 10
-498.951948547
 20
111.2710475985
 30
0.0
 11
-498.951948547
 21
361.9710475985
 31
0.0
  0
LINE
  5
1D2
330
1F
100
AcDbEntity
  8
0
  6
Continuous
 62
     1
370
    25
100
AcDbLine
 10
-498.951948547
 20
-139.4289524015
 30
0.0
 11
-498.951948547
 21
111.2710475985
 31
0.0
  0
LINE
  5
1D3
330
1F
100
AcDbEntity
  8
0
  6
Continuous
 62
     1
370
    25
100
AcDbLine
 10
-746.3245315491
 20
111.2710475985
 30
0.0
 11
-746.3245315491
 21
-139.4289524015
 31
0.0
  0
LINE
  5
1D4
330
1F
100
AcDbEntity
  8
0
  6
Continuous
 62
     1
370
    25
100
AcDbLine
 10
-746.3245315491
 20
361.9710475985
 30
0.0
 11
-746.3245315491
 21
111.2710475985
 31
0.0
  0
LINE
  5
1D5
330
1F
100
AcDbEntity
  8
0
  6
Continuous
 62
     1
370
    25
100
AcDbLine
 10
-727.951948547
 20
111.2710475985
 30
0.0
 11
-727.951948547
 21
361.9710475985
 31
0.0
  0
LINE
  5
1D6
330
1F
100
AcDbEntity
  8
0
  6
Continuous
 62
     1
370
    25
100
AcDbLine
 10
-727.951948547
 20
-139.4289524015
 30
0.0
 11
-727.951948547
 21
111.2710475985
 31
0.0
  0
LINE
  5
1D7
330
1F
100
AcDbEntity
  8
0
  6
Continuous
 62
     1
370
    25
100
AcDbLine
 10
-517.3245315491
 20
111.2710475985
 30
0.0
 11
-517.3245315491
 21
-139.4289524015
 31
0.0
  0
LINE
  5
1D8
330
1F
100
AcDbEntity
  8
0
  6
Continuous
 62
     1
370
    25
100
AcDbLine
 10
-517.3245315491
 20
361.9710475985
 30
0.0
 11
-517.3245315491
 21
111.2710475985
 31
0.0
  0
ARC
  5
1D9
330
1F
100
AcDbEntity
  8
0
  6
Continuous
 62
     7
370
    25
100
AcDbCircle
 10
-129.265761792
 20
-824.981855659
 30
0.0
 40
8.000000000000114
100
AcDbArc
 50
180.0
 51
270.0
  0
ARC
  5
1DA
330
1F
100
AcDbEntity
  8
0
  6
Continuous
 62
     7
370
    25
100
AcDbCircle
 10
372.134238208
 20
-824.981855659
 30
0.0
 40
8.000000000000114
100
AcDbArc
 50
270.0
 51
0.0
  0
LINE
  5
1DB
330
1F
100
AcDbEntity
  8
0
  6
Continuous
 62
     7
370
    25
100
AcDbLine
 10
380.134238208
 20
-824.981855659
 30
0.0
 11
380.134238208
 21
-811.295564158
 31
0.0
  0
LINE
  5
1DC
330
1F
100
AcDbEntity
  8
0
  6
Continuous
 62
     7
370
    25
100
AcDbLine
 10
-137.265761792
 20
-811.295564158
 30
0.0
 11
-137.265761792
 21
-824.981855659
 31
0.0
  0
ARC
  5
1DD
330
1F
100
AcDbEntity
  8
0
  6
Continuous
 62
     7
370
    25
100
AcDbCircle
 10
-129.265761792
 20
-811.295564158
 30
0.0
 40
8.0
100
AcDbArc
 50
135.0
 51
180.0
  0
ARC
  5
1DE
330
1F
100
AcDbEntity
  8
0
  6
Continuous
 62
     7
370
    25
100
AcDbCircle
 10
372.134238208
 20
-811.295564158
 30
0.0
 40
8.0
100
AcDbArc
 50
0.0
 51
45.0
  0
ARC
  5
1DF
330
1F
100
AcDbEntity
  8
0
  6
Continuous
 62
     7
370
    25
100
AcDbCircle
 10
-129.265761792
 20
-534.66814716
 30
0.0
 40
8.000000000000025
100
AcDbArc
 50
180.0
 51
225.0
  0
ARC
  5
1E0
330
1F
100
AcDbEntity
  8
0
  6
Continuous
 62
     7
370
    25
100
AcDbCircle
 10
372.134238208
 20
-534.66814716
 30
0.0
 40
8.000000000000025
100
AcDbArc
 50
315.0
 51
0.0
  0
LINE
  5
1E1
330
1F
100
AcDbEntity
  8
0
  6
Continuous
 62
     7
370
    25
100
AcDbLine
 10
380.134238208
 20
-534.66814716
 30
0.0
 11
380.134238208
 21
-520.981855659
 31
0.0
  0
LINE
  5
1E2
330
1F
100
AcDbEntity
  8
0
  6
Continuous
 62
     7
370
    25
100
AcDbLine
 10
-137.265761792
 20
-520.981855659
 30
0.0
 11
-137.265761792
 21
-534.66814716
 31
0.0
  0
ARC
  5
1E3
330
1F
100
AcDbEntity
  8
0
  6
Continuous
 62
     7
370
    25
100
AcDbCircle
 10
372.134238208
 20
-520.981855659
 30
0.0
 40
8.0
100
AcDbArc
 50
0.0
 51
90.0
  0
ARC
  5
1E4
330
1F
100
AcDbEntity
  8
0
  6
Continuous
 62
     7
370
    25
100
AcDbCircle
 10
-129.265761792
 20
-520.981855659
 30
0.0
 40
8.0
100
AcDbArc
 50
90.0
 51
180.0
  0
ARC
  5
1E5
330
1F
100
AcDbEntity
  8
0
  6
Continuous
 62
     7
370
    25
100
AcDbCircle
 10
179.434238208
 20
-732.981855659
 30
0.0
 40
200.0
100
AcDbArc
 50
350.1900599512
 51
0.0
  0
ARC
  5
1E6
330
1F
100
AcDbEntity
  8
0
  6
Continuous
 62
     7
370
    25
100
AcDbCircle
 10
63.434238208
 20
-732.981855659
 30
0.0
 40
200.0
100
AcDbArc
 50
180.0
 51
189.8099400488
  0
LINE
  5
1E7
330
1F
100
AcDbEntity
  8
0
  6
Continuous
 62
     7
370
    25
100
AcDbLine
 10
379.434238208
 20
-732.981855659
 30
0.0
 11
379.434238208
 21
-612.981855659
 31
0.0
  0
LINE
  5
1E8
330
1F
100
AcDbEntity
  8
0
  6
Continuous
 62
     7
370
    25
100
AcDbLine
 10
-136.565761792
 20
-612.981855659
 30
0.0
 11
-136.565761792
 21
-732.981855659
 31
0.0
  0
ARC
  5
1E9
330
1F
100
AcDbEntity
  8
0
  6
Continuous
 62
     7
370
    25
100
AcDbCircle
 10
179.434238208
 20
-612.981855659
 30
0.0
 40
200.0
100
AcDbArc
 50
0.0
 51
9.8099400488
  0
ARC
  5
1EA
330
1F
100
AcDbEntity
  8
0
  6
Continuous
 62
     7
370
    25
100
AcDbCircle
 10
63.434238208
 20
-612.981855659
 30
0.0
 40
200.0
100
AcDbArc
 50
170.1900599512
 51
180.0
  0
LINE
  5
1EB
330
1F
100
AcDbEntity
  8
0
  6
Continuous
 62
     7
370
    25
100
AcDbLine
 10
377.7910924575
 20
-805.6387099085
 30
0.0
 11
374.4773839585
 21
-802.3250014095
 31
0.0
  0
LINE
  5
1EC
330
1F
100
AcDbEntity
  8
0
  6
Continuous
 62
     7
370
    25
100
AcDbLine
 10
-131.6089075425
 20
-802.3250014095
 30
0.0
 11
-134.9226160415
 21
-805.6387099085
 31
0.0
  0
LINE
  5
1ED
330
1F
100
AcDbEntity
  8
0
  6
Continuous
 62
     7
370
    25
100
AcDbLine
 10
-134.9226160415
 20
-540.3250014095
 30
0.0
 11
-131.6089075425
 21
-543.6387099085
 31
0.0
  0
LINE
  5
1EE
330
1F
100
AcDbEntity
  8
0
  6
Continuous
 62
     7
370
    25
100
AcDbLine
 10
374.4773839585
 20
-543.6387099085
 30
0.0
 11
377.7910924575
 21
-540.3250014095
 31
0.0
  0
ARC
  5
1EF
330
1F
100
AcDbEntity
  8
0
  6
Continuous
 62
     7
370
    25
100
AcDbCircle
 10
-118.8607573913
 20
-764.502239214
 30
0.0
 40
15.00000000000003
100
AcDbArc
 50
189.8099400488
 51
216.8491150082
  0
ARC
  5
1F0
330
1F
100
AcDbEntity
  8
0
  6
Continuous
 62
     7
370
    25
100
AcDbCircle
 10
361.7292338073
 20
-764.502239214
 30
0.0
 40
15.00000000000005
100
AcDbArc
 50
323.1508849918
 51
350.1900599512
  0
ARC
  5
1F1
330
1F
100
AcDbEntity
  8
0
  6
Continuous
 62
     7
370
    25
100
AcDbCircle
 10
-118.8607573913
 20
-581.461472104
 30
0.0
 40
14.99999999999996
100
AcDbArc
 50
143.1508849918
 51
170.1900599512
  0
ARC
  5
1F2
330
1F
100
AcDbEntity
  8
0
  6
Continuous
 62
     7
370
    25
100
AcDbCircle
 10
361.7292338073
 20
-581.461472104
 30
0.0
 40
14.99999999999996
100
AcDbArc
 50
9.8099400488
 51
36.8491150082
  0
ARC
  5
1F3
330
1F
100
AcDbEntity
  8
0
  6
Continuous
 62
     7
370
    25
100
AcDbCircle
 10
380.134238208
 20
-796.66814716
 30
0.0
 40
8.000000000000064
100
AcDbArc
 50
180.0
 51
225.0
  0
ARC
  5
1F4
330
1F
100
AcDbEntity
  8
0
  6
Continuous
 62
     7
370
    25
100
AcDbCircle
 10
-137.265761792
 20
-796.66814716
 30
0.0
 40
8.000000000000064
100
AcDbArc
 50
315.0
 51
0.0
  0
ARC
  5
1F5
330
1F
100
AcDbEntity
  8
0
  6
Continuous
 62
     7
370
    25
100
AcDbCircle
 10
380.134238208
 20
-549.295564158
 30
0.0
 40
8.0
100
AcDbArc
 50
135.0
 51
180.0
  0
ARC
  5
1F6
330
1F
100
AcDbEntity
  8
0
  6
Continuous
 62
     7
370
    25
100
AcDbCircle
 10
-137.265761792
 20
-549.295564158
 30
0.0
 40
8.0
100
AcDbArc
 50
0.0
 51
45.0
  0
ARC
  5
1F7
330
1F
100
AcDbEntity
  8
0
  6
Continuous
 62
     7
370
    25
100
AcDbCircle
 10
380.134238208
 20
-778.295564158
 30
0.0
 40
8.0
100
AcDbArc
 50
143.1508849918
 51
180.0
  0
ARC
  5
1F8
330
1F
100
AcDbEntity
  8
0
  6
Continuous
 62
     7
370
    25
100
AcDbCircle
 10
-137.265761792
 20
-778.295564158
 30
0.0
 40
8.0
100
AcDbArc
 50
0.0
 51
36.8491150082
  0
ARC
  5
1F9
330
1F
100
AcDbEntity
  8
0
  6
Continuous
 62
     7
370
    25
100
AcDbCircle
 10
380.134238208
 20
-567.66814716
 30
0.0
 40
8.0
100
AcDbArc
 50
180.0
 51
216.8491150082
  0
ARC
  5
1FA
330
1F
100
AcDbEntity
  8
0
  6
Continuous
 62
     7
370
    25
100
AcDbCircle
 10
-137.265761792
 20
-567.66814716
 30
0.0
 40
8.0
100
AcDbArc
 50
323.1508849918
 51
0.0
  0
LINE
  5
1FB
330
1F
100
AcDbEntity
  8
0
  6
Continuous
 62
     7
370
    25
100
AcDbLine
 10
372.134238208
 20
-796.66814716
 30
0.0
 11
372.134238208
 21
-778.295564158
 31
0.0
  0
LINE
  5
1FC
330
1F
100
AcDbEntity
  8
0
  6
Continuous
 62
     7
370
    25
100
AcDbLine
 10
-129.265761792
 20
-778.295564158
 30
0.0
 11
-129.265761792
 21
-796.66814716
 31
0.0
  0
LINE
  5
1FD
330
1F
100
AcDbEntity
  8
0
  6
Continuous
 62
     7
370
    25
100
AcDbLine
 10
372.134238208
 20
-567.66814716
 30
0.0
 11
372.134238208
 21
-549.295564158
 31
0.0
  0
LINE
  5
1FE
330
1F
100
AcDbEntity
  8
0
  6
Continuous
 62
     7
370
    25
100
AcDbLine
 10
-129.265761792
 20
-549.295564158
 30
0.0
 11
-129.265761792
 21
-567.66814716
 31
0.0
  0
LINE
  5
1FF
330
1F
100
AcDbEntity
  8
0
  6
Continuous
 62
     7
370
    25
100
AcDbLine
 10
372.134238208
 20
-832.981855659
 30
0.0
 11
-129.2657617918
 21
-832.981855659
 31
0.0
  0
LINE
  5
200
330
1F
100
AcDbEntity
  8
0
  6
Continuous
 62
     7
370
    25
100
AcDbLine
 10
-129.265761792
 20
-512.981855659
 30
0.0
 11
372.1342382078
 21
-512.981855659
 31
0.0
  0
LINE
  5
201
330
1F
100
AcDbEntity
  8
0
  6
Continuous
 62
     1
370
    25
100
AcDbLine
 10
-137.265761792
 20
-824.981855659
 30
0.0
 11
380.134238208
 21
-824.981855659
 31
0.0
  0
LINE
  5
202
330
1F
100
AcDbEntity
  8
0
  6
Continuous
 62
     1
370
    25
100
AcDbLine
 10
380.134238208
 20
-811.295564158
 30
0.0
 11
-137.265761792
 21
-811.295564158
 31
0.0
  0
LINE
  5
203
330
1F
100
AcDbEntity
  8
0
  6
Continuous
 62
     1
370
    25
100
AcDbLine
 10
-134.9226160415
 20
-805.6387099085
 30
0.0
 11
377.7910924575
 21
-805.6387099085
 31
0.0
  0
LINE
  5
204
330
1F
100
AcDbEntity
  8
0
  6
Continuous
 62
     1
370
    25
100
AcDbLine
 10
377.7910924575
 20
-540.3250014095
 30
0.0
 11
-134.9226160415
 21
-540.3250014095
 31
0.0
  0
LINE
  5
205
330
1F
100
AcDbEntity
  8
0
  6
Continuous
 62
     1
370
    25
100
AcDbLine
 10
-137.265761792
 20
-534.66814716
 30
0.0
 11
380.134238208
 21
-534.66814716
 31
0.0
  0
LINE
  5
206
330
1F
100
AcDbEntity
  8
0
  6
Continuous
 62
     1
370
    25
100
AcDbLine
 10
380.134238208
 20
-520.981855659
 30
0.0
 11
-137.265761792
 21
-520.981855659
 31
0.0
  0
LINE
  5
207
330
1F
100
AcDbEntity
  8
0
  6
Continuous
 62
     1
370
    25
100
AcDbLine
 10
379.434238208
 20
-732.981855659
 30
0.0
 11
-136.565761792
 21
-732.981855659
 31
0.0
  0
LINE
  5
208
330
1F
100
AcDbEntity
  8
0
  6
Continuous
 62
     1
370
    25
100
AcDbLine
 10
-133.6414327101
 20
-767.0579459887
 30
0.0
 11
376.5099091261
 21
-767.0579459887
 31
0.0
  0
LINE
  5
209
330
1F
100
AcDbEntity
  8
0
  6
Continuous
 62
     1
370
    25
100
AcDbLine
 10
379.434238208
 20
-612.981855659
 30
0.0
 11
-136.565761792
 21
-612.981855659
 31
0.0
  0
LINE
  5
20A
330
1F
100
AcDbEntity
  8
0
  6
Continuous
 62
     1
370
    25
100
AcDbLine
 10
376.5099091261
 20
-578.9057653292
 30
0.0
 11
-133.6414327101
 21
-578.9057653292
 31
0.0
  0
LINE
  5
20B
330
1F
100
AcDbEntity
  8
0
  6
Continuous
 62
     1
370
    25
100
AcDbLine
 10
374.4773839585
 20
-802.3250014095
 30
0.0
 11
-131.6089075425
 21
-802.3250014095
 31
0.0
  0
LINE
  5
20C
330
1F
100
AcDbEntity
  8
0
  6
Continuous
 62
     1
370
    25
100
AcDbLine
 10
-131.6089075425
 20
-543.6387099085
 30
0.0
 11
374.4773839585
 21
-543.6387099085
 31
0.0
  0
LINE
  5
20D
330
1F
100
AcDbEntity
  8
0
  6
Continuous
 62
     1
370
    25
100
AcDbLine
 10
373.7324975469
 20
-773.4978859166
 30
0.0
 11
-130.8640211309
 21
-773.4978859166
 31
0.0
  0
LINE
  5
20E
330
1F
100
AcDbEntity
  8
0
  6
Continuous
 62
     1
370
    25
100
AcDbLine
 10
-130.8640211309
 20
-572.4658254014
 30
0.0
 11
373.7324975469
 21
-572.4658254014
 31
0.0
  0
LINE
  5
20F
330
1F
100
AcDbEntity
  8
0
  6
Continuous
 62
     1
370
    25
100
AcDbLine
 10
-129.265761792
 20
-796.66814716
 30
0.0
 11
372.134238208
 21
-796.66814716
 31
0.0
  0
LINE
  5
210
330
1F
100
AcDbEntity
  8
0
  6
Continuous
 62
     1
370
    25
100
AcDbLine
 10
372.134238208
 20
-549.295564158
 30
0.0
 11
-129.265761792
 21
-549.295564158
 31
0.0
  0
LINE
  5
211
330
1F
100
AcDbEntity
  8
0
  6
Continuous
 62
     1
370
    25
100
AcDbLine
 10
372.134238208
 20
-778.295564158
 30
0.0
 11
-129.265761792
 21
-778.295564158
 31
0.0
  0
LINE
  5
212
330
1F
100
AcDbEntity
  8
0
  6
Continuous
 62
     1
370
    25
100
AcDbLine
 10
-129.265761792
 20
-567.66814716
 30
0.0
 11
372.134238208
 21
-567.66814716
 31
0.0
  0
SPLINE
  5
213
330
1F
100
AcDbEntity
  8
0
  6
Continuous
 62
     7
370
    25
100
AcDbSpline
210
0.0
220
0.0
230
1.0
 70
     8
 71
     3
 72
    96
 73
    92
 74
     0
 42
0.00000001
 43
0.00000001
 40
0.0
 40
0.0
 40
0.0
 40
0.0
 40
0.0075610315185605
 40
0.0186608618440725
 40
0.0297696725437885
 40
0.0408938244088044
 40
0.0520388535334502
 40
0.0632092275635761
 40
0.0744081873292867
 40
0.0856376821148787
 40
0.0968983972584982
 40
0.1081898634328432
 40
0.1195106292364896
 40
0.1308584738865023
 40
0.1422306355599991
 40
0.1536240331978677
 40
0.1650354645065478
 40
0.1764617691653653
 40
0.1878999525214175
 40
0.1993472703017714
 40
0.2108012785509053
 40
0.2222598550351718
 40
0.2337211989965999
 40
0.2451838157903947
 40
0.2566462002694834
 40
0.2681074124512287
 40
0.2795667767067024
 40
0.291023795747838
 40
0.3024781222725271
 40
0.31392953352848
 40
0.3253779090324227
 40
0.3368232114152068
 40
0.3482654702043673
 40
0.3597047682700364
 40
0.3711412306239981
 40
0.382575015257817
 40
0.3940063057212594
 40
0.4054353051679817
 40
0.4168622316256752
 40
0.4282873142788837
 40
0.4397107905821972
 40
0.451132904048388
 40
0.4625539025795273
 40
0.4739740372292042
 40
0.4853935613006476
 40
0.4968127296989128
 40
0.5082317984657744
 40
0.5196510020434824
 40
0.531070534525699
 40
0.5424906535772215
 40
0.5539116168714701
 40
0.565333681681742
 40
0.5767571043261099
 40
0.5881821393912056
 40
0.5996090386572296
 40
0.6110380496341546
 40
0.6224694136035176
 40
0.6339033630411542
 40
0.645340118273536
 40
0.6567798831941597
 40
0.6682228398367431
 40
0.6796691415698931
 40
0.6911189046448083
 40
0.7025721977964011
 40
0.714029029573586
 40
0.7254893330634858
 40
0.7369529476878027
 40
0.7484195978024687
 40
0.7598888679452999
 40
0.7713601747771774
 40
0.7828327360843608
 40
0.7943052649090433
 40
0.8057762664296834
 40
0.8172440598165099
 40
0.8287066342313161
 40
0.8401616373723346
 40
0.8516063825694739
 40
0.8630378816810643
 40
0.8744529111665198
 40
0.885848117526484
 40
0.8972201654147701
 40
0.9085659269274233
 40
0.9198827041066994
 40
0.9311684694079436
 40
0.9424221021869592
 40
0.9536435948809244
 40
0.9648342019531742
 40
0.9759965085455248
 40
0.9871344037206549
 40
0.9982529537574872
 40
0.9999999999999999
 40
0.9999999999999999
 40
0.9999999999999999
 40
0.9999999999999999
 10
-466.8169012985193
 20
-756.8838532341491
 30
0.0
 10
-465.792776653346
 20
-756.2163657411227
 30
0.0
 10
-463.2652050557702
 20
-754.568985769298
 30
0.0
 10
-459.4263732467557
 20
-751.6343487683628
 30
0.0
 10
-455.2813971117484
 20
-748.126373933136
 30
0.0
 10
-451.3204093250478
 20
-744.3488330415851
 30
0.0
 10
-447.5398019160141
 20
-740.3183239712716
 30
0.0
 10
-443.9461704352251
 20
-736.0352194895232
 30
0.0
 10
-440.5434588000869
 20
-731.5046613998652
 30
0.0
 10
-437.3363714113673
 20
-726.7310486185044
 30
0.0
 10
-434.3293819100326
 20
-721.7196207521202
 30
0.0
 10
-431.5269036413449
 20
-716.4760976113997
 30
0.0
 10
-428.9331381689267
 20
-711.0068001135336
 30
0.0
 10
-426.5520132527359
 20
-705.3186012907203
 30
0.0
 10
-424.387109951464
 20
-699.4188888351032
 30
0.0
 10
-422.441612886654
 20
-693.3155000405637
 30
0.0
 10
-420.718277764648
 20
-687.0166507060727
 30
0.0
 10
-419.2194174869165
 20
-680.5308626400173
 30
0.0
 10
-417.9469035621934
 20
-673.8668969364005
 30
0.0
 10
-416.9021791958734
 20
-667.0336967793213
 30
0.0
 10
-416.0862799989354
 20
-660.0403416705391
 30
0.0
 10
-415.4998586732394
 20
-652.8960131219943
 30
0.0
 10
-415.1432107261303
 20
-645.6099706733951
 30
0.0
 10
-415.0163001793681
 20
-638.1915993318022
 30
0.0
 10
-415.1187720244326
 20
-630.6503375047703
 30
0.0
 10
-415.4499726855514
 20
-622.9956610168011
 30
0.0
 10
-416.0089759415859
 20
-615.2370146528033
 30
0.0
 10
-416.7945979473945
 20
-607.3838814262704
 30
0.0
 10
-417.8054061916678
 20
-599.4457951151303
 30
0.0
 10
-419.0397264231358
 20
-591.4323400629535
 30
0.0
 10
-420.4956478550018
 20
-583.3531500137072
 30
0.0
 10
-422.1710270864064
 20
-575.2179057784798
 30
0.0
 10
-424.0634911256184
 20
-567.0363316624358
 30
0.0
 10
-426.1704398390612
 20
-558.8181906674182
 30
0.0
 10
-428.4890480907806
 20
-550.573278541726
 30
0.0
 10
-431.0162677825616
 20
-542.3114167815589
 30
0.0
 10
-433.7488299575051
 20
-534.0424447051574
 30
0.0
 10
-436.6832470899813
 20
-525.7762107261457
 30
0.0
 10
-439.8158156521109
 20
-517.5225629509366
 30
0.0
 10
-443.1426190205789
 20
-509.2913392191607
 30
0.0
 10
-446.6595307667028
 20
-501.0923566979573
 30
0.0
 10
-450.3622183563293
 20
-492.9354011319547
 30
0.0
 10
-454.2461472734327
 20
-484.8302158417626
 30
0.0
 10
-458.306585571447
 20
-476.7864905553372
 30
0.0
 10
-462.5386088487163
 20
-468.8138501489241
 30
0.0
 10
-466.937105638314
 20
-460.9218433678035
 30
0.0
 10
-471.496780217718
 20
-453.1199366900701
 30
0.0
 10
-476.2121525960855
 20
-445.4175120241061
 30
0.0
 10
-481.0775725648152
 20
-437.8238405117455
 30
0.0
 10
-486.0872301927354
 20
-430.3480666693447
 30
0.0
 10
-491.2351700388493
 20
-422.9991895962017
 30
0.0
 10
-496.515289910595
 20
-415.7860670108251
 30
0.0
 10
-501.9213485610852
 20
-408.7174054260963
 30
0.0
 10
-507.4469735775864
 20
-401.8017507274218
 30
0.0
 10
-513.0856694064481
 20
-395.0474792047131
 30
0.0
 10
-518.8308254521972
 20
-388.4627890848544
 30
0.0
 10
-524.6757241770017
 20
-382.0556926099567
 30
0.0
 10
-530.6135491131902
 20
-375.8340087035017
 30
0.0
 10
-536.6373926854441
 20
-369.8053562614938
 30
0.0
 10
-542.7402637204151
 20
-363.9771480977777
 30
0.0
 10
-548.915094499926
 20
-358.3565855606192
 30
0.0
 10
-555.1547471896943
 20
-352.9506538198957
 30
0.0
 10
-561.4520194493955
 20
-347.76611779889
 30
0.0
 10
-567.7996490031368
 20
-342.8095186893523
 30
0.0
 10
-574.1903169243596
 20
-338.0871709405016
 30
0.0
 10
-580.6166493695395
 20
-333.6051595489567
 30
0.0
 10
-587.0712174865595
 20
-329.3693373942779
 30
0.0
 10
-593.5465352339753
 20
-325.3853222616734
 30
0.0
 10
-600.0350548899095
 20
-321.6584930678121
 30
0.0
 10
-606.5291601105424
 20
-318.1939846633802
 30
0.0
 10
-613.0211051121972
 20
-314.996705762005
 30
0.0
 10
-619.503014388029
 20
-312.0713116396544
 30
0.0
 10
-625.9668918596064
 20
-309.4221708615083
 30
0.0
 10
-632.4046583188101
 20
-307.0533249388306
 30
0.0
 10
-638.8081280017392
 20
-304.9684716770288
 30
0.0
 10
-645.1689798351963
 20
-303.1709402505975
 30
0.0
 10
-651.4787585875592
 20
-301.6636492343038
 30
0.0
 10
-657.7288865591867
 20
-300.4490588851214
 30
0.0
 10
-663.9106889674885
 20
-299.5291202485278
 30
0.0
 10
-670.0154359982065
 20
-298.9052243578363
 30
0.0
 10
-676.0344014353668
 20
-298.57815925154
 30
0.0
 10
-681.9589417576907
 20
-298.5480724726219
 30
0.0
 10
-687.7805738489749
 20
-298.814478358193
 30
0.0
 10
-693.4911118313731
 20
-299.3761945394973
 30
0.0
 10
-699.0826039182347
 20
-300.2316620043906
 30
0.0
 10
-704.5479876624707
 20
-301.3779727146945
 30
0.0
 10
-709.8790016767134
 20
-302.8148289381687
 30
0.0
 10
-715.0741767682696
 20
-304.5302752923564
 30
0.0
 10
-720.1091975049711
 20
-306.5542681419807
 30
0.0
 10
-723.6619772636477
 20
-308.1411908190339
 30
0.0
 10
-725.4876732625337
 20
-309.1350458353298
 30
0.0
 10
-725.7355883428432
 20
-309.2700034878258
 30
0.0
  0
LINE
  5
214
330
1F
100
AcDbEntity
  8
0
  6
Continuous
 62
     7
370
    25
100
AcDbLine
 10
-480.6640579099
 20
-765.0692925381
 30
0.0
 11
-470.9863883802
 21
-759.482492837
 31
0.0
  0
LINE
  5
215
330
1F
100
AcDbEntity
  8
0
  6
Continuous
 62
     7
370
    25
100
AcDbLine
 10
-729.6653645132
 20
-311.3888114413
 30
0.0
 11
-739.3430340428
 21
-316.9756111424
 31
0.0
  0
SPLINE
  5
216
330
1F
100
AcDbEntity
  8
0
  6
Continuous
 62
     7
370
    25
100
AcDbSpline
210
0.0
220
0.0
230
1.0
 70
     8
 71
     3
 72
    28
 73
    24
 74
     0
 42
0.00000001
 43
0.00000001
 40
0.0
 40
0.0
 40
0.0
 40
0.0
 40
0.0306099662781066
 40
0.0818333052035876
 40
0.1330498249165123
 40
0.1842520207320338
 40
0.2354309145209114
 40
0.2865760035637252
 40
0.3376752922303584
 40
0.3887154388595332
 40
0.4396820507646395
 40
0.4905601550101831
 40
0.5413348597121791
 40
0.591992199189048
 40
0.6425201274127701
 40
0.692909591661943
 40
0.743155588406982
 40
0.7932580838808659
 40
0.8432226790981294
 40
0.8930609163784676
 40
0.9427901598774774
 40
0.9924330298671412
 40
1.0
 40
1.0
 40
1.0
 40
1.0
 10
-601.1888377445929
 20
-759.5058254777431
 30
0.0
 10
-599.8956120532403
 20
-760.1512702796856
 30
0.0
 10
-596.438276238621
 20
-761.8768155151671
 30
0.0
 10
-590.8265728821463
 20
-764.3793727677383
 30
0.0
 10
-584.3624864082867
 20
-767.0379204890722
 30
0.0
 10
-577.9247759284812
 20
-769.4042468458318
 30
0.0
 10
-571.5212912558566
 20
-771.4897747759676
 30
0.0
 10
-565.1604434349917
 20
-773.2871256002453
 30
0.0
 10
-558.850663608883
 20
-774.7944649451356
 30
0.0
 10
-552.6005359244299
 20
-776.0090423668298
 30
0.0
 10
-546.4187334395124
 20
-776.9289844596744
 30
0.0
 10
-540.3139864286404
 20
-777.5528794277886
 30
0.0
 10
-534.2950209885242
 20
-777.8799447762675
 30
0.0
 10
-528.3704806582648
 20
-777.9100315064297
 30
0.0
 10
-522.5488486015366
 20
-777.643625574707
 30
0.0
 10
-516.8383104893554
 20
-777.0819096256246
 30
0.0
 10
-511.2468188851507
 20
-776.2264412815578
 30
0.0
 10
-505.7814333471645
 20
-775.0801338427686
 30
0.0
 10
-500.4504260000583
 20
-773.6432654583909
 30
0.0
 10
-495.2552261189706
 20
-771.9278643207787
 30
0.0
 10
-490.2202976025148
 20
-769.903703259597
 30
0.0
 10
-486.6750073730637
 20
-768.3206855901051
 30
0.0
 10
-484.856638162471
 20
-767.3310324240714
 30
0.0
 10
-484.6161280425757
 20
-767.2001340343325
 30
0.0
  0
SPLINE
  5
217
330
1F
100
AcDbEntity
  8
0
  6
Continuous
 62
     7
370
    25
100
AcDbSpline
210
0.0
220
0.0
230
1.0
 70
     8
 71
     3
 72
    27
 73
    23
 74
     0
 42
0.00000001
 43
0.00000001
 40
0.0
 40
0.0
 40
0.0
 40
0.0
 40
0.0379031248002456
 40
0.0880606121779984
 40
0.1382586797261398
 40
0.1885260703434083
 40
0.2388878003204322
 40
0.2893640578838604
 40
0.3399694875724324
 40
0.3907128977372194
 40
0.4415973852579494
 40
0.4926208293563977
 40
0.543776671495535
 40
0.5950548764866153
 40
0.6464429643103874
 40
0.6979270123951361
 40
0.749492550339605
 40
0.801125297407984
 40
0.8528117214776635
 40
0.9045394218333642
 40
0.9562973548227037
 40
1.0
 40
1.0
 40
1.0
 40
1.0
 10
-743.17868706506
 20
-319.3518006691056
 30
0.0
 10
-744.3152451538818
 20
-320.0916066744963
 30
0.0
 10
-746.9558190275391
 20
-321.8104034774246
 30
0.0
 10
-750.9035775822415
 20
-324.8229176115921
 30
0.0
 10
-755.0478834689058
 20
-328.3319548869013
 30
0.0
 10
-759.0090512030118
 20
-332.1092105358749
 30
0.0
 10
-762.7896102639394
 20
-336.1397962450638
 30
0.0
 10
-766.3832547421633
 20
-340.4228801233703
 30
0.0
 10
-769.7859628837808
 20
-344.9534437531491
 30
0.0
 10
-772.993051203795
 20
-349.7270550493266
 30
0.0
 10
-776.0000404867113
 20
-354.7384832954695
 30
0.0
 10
-778.8025186936686
 20
-359.9820064083781
 30
0.0
 10
-781.3962846341183
 20
-365.4513036351377
 30
0.0
 10
-783.7774077337294
 20
-371.1395035742434
 30
0.0
 10
-785.9423178531913
 20
-377.0392118234564
 30
0.0
 10
-787.8877893973412
 20
-383.1426163671264
 30
0.0
 10
-789.6112199874701
 20
-389.4414067858041
 30
0.0
 10
-791.1097232887183
 20
-395.9274151514712
 30
0.0
 10
-792.3835715050674
 20
-402.5905574284167
 30
0.0
 10
-793.4233103910631
 20
-409.4268342573561
 30
0.0
 10
-794.2144246824016
 20
-416.0455418207382
 30
0.0
 10
-794.547331442317
 20
-420.4529384650887
 30
0.0
 10
-794.6997389207246
 20
-422.4706812381047
 30
0.0
  0
LINE
  5
218
330
1F
100
AcDbEntity
  8
0
  6
Continuous
 62
     7
370
    25
100
AcDbLine
 10
-795.2752160198
 20
-438.6856950233
 30
0.0
 11
-795.2752160198
 21
-441.3910335221
 31
0.0
  0
LINE
  5
219
330
1F
100
AcDbEntity
  8
0
  6
Continuous
 62
     7
370
    25
100
AcDbLine
 10
-616.3757726442
 20
-751.2875368261
 30
0.0
 11
-614.0330077207
 21
-752.6404259222
 31
0.0
  0
SPLINE
  5
21A
330
1F
100
AcDbEntity
  8
0
  6
Continuous
 62
     7
370
    25
100
AcDbSpline
210
0.0
220
0.0
230
1.0
 70
     8
 71
     3
 72
    13
 73
     9
 74
     0
 42
0.00000001
 43
0.00000001
 40
0.0
 40
0.0
 40
0.0
 40
0.0
 40
0.0884631601193384
 40
0.3121299636077092
 40
0.5353006806873205
 40
0.7580089196035684
 40
0.9802879531047579
 40
1.0
 40
1.0
 40
1.0
 40
1.0
 10
-760.4225211279112
 20
-333.69087056194
 30
0.0
 10
-761.4639801070093
 20
-334.0638114868018
 30
0.0
 10
-765.1386233461421
 20
-335.3796816993053
 30
0.0
 10
-771.3224615669697
 20
-337.9516664109166
 30
0.0
 10
-778.9617136802109
 20
-341.3838440092607
 30
0.0
 10
-786.4245024294465
 20
-345.1447220921683
 30
0.0
 10
-791.5581476135548
 20
-347.8775010571039
 30
0.0
 10
-794.1531430407201
 20
-349.4350066330792
 30
0.0
 10
-794.3645255076666
 20
-349.5618775198199
 30
0.0
  0
SPLINE
  5
21B
330
1F
100
AcDbEntity
  8
0
  6
Continuous
 62
     7
370
    25
100
AcDbSpline
210
0.0
220
0.0
230
1.0
 70
     8
 71
     3
 72
    13
 73
     9
 74
     0
 42
0.00000001
 43
0.00000001
 40
0.0
 40
0.0
 40
0.0
 40
0.0
 40
0.0772833223542849
 40
0.2992687249055159
 40
0.5208968884485186
 40
0.7422001387202387
 40
0.9632129411449809
 40
1.0
 40
1.0
 40
1.0
 40
1.0
 10
-536.407475223199
 20
-796.3995626597109
 30
0.0
 10
-535.5665118992174
 20
-795.9253477079255
 30
0.0
 10
-532.3100004813138
 20
-794.0890174412051
 30
0.0
 10
-526.806593914239
 20
-790.6113204593246
 30
0.0
 10
-519.9077582652585
 20
-785.983767029108
 30
0.0
 10
-513.2291200892638
 20
-781.0657763469204
 30
0.0
 10
-508.4942383963642
 20
-777.4005372407527
 30
0.0
 10
-506.0508305833176
 20
-775.303761079577
 30
0.0
 10
-505.7021655895541
 20
-775.0045591030358
 30
0.0
  0
LINE
  5
21C
330
1F
100
AcDbEntity
  8
0
  6
Continuous
 62
     7
370
    25
100
AcDbLine
 10
-621.2429975482
 20
-845.4155184866
 30
0.0
 11
-536.3901838058
 21
-796.4310317772
 31
0.0
  0
LINE
  5
21D
330
1F
100
AcDbEntity
  8
0
  6
Continuous
 62
     7
370
    25
100
AcDbLine
 10
-794.3692168259
 20
-349.5498187888
 30
0.0
 11
-879.2220305683
 21
-398.5343054982
 31
0.0
  0
SPLINE
  5
21E
330
1F
100
AcDbEntity
  8
0
  6
Continuous
 62
     7
370
    25
100
AcDbSpline
210
0.0
220
0.0
230
1.0
 70
     8
 71
     3
 72
    13
 73
     9
 74
     0
 42
0.00000001
 43
0.00000001
 40
0.0
 40
0.0
 40
0.0
 40
0.0
 40
0.1641565147804845
 40
0.3440206172991578
 40
0.5236091769370413
 40
0.7029499169058689
 40
0.8820711399955472
 40
1.0
 40
1.0
 40
1.0
 40
1.0
 10
-879.2173392500523
 20
-398.5463642291823
 30
0.0
 10
-881.3972783864331
 20
-399.8279590875073
 30
0.0
 10
-885.9657477424936
 20
-402.5137803287658
 30
0.0
 10
-892.7149670457906
 20
-406.9339813210853
 30
0.0
 10
-899.4995633245651
 20
-411.715553955146
 30
0.0
 10
-906.0770477738575
 20
-416.7581197551295
 30
0.0
 10
-911.7564666992382
 20
-421.4072031342629
 30
0.0
 10
-915.1518788676162
 20
-424.4727280777668
 30
0.0
 10
-916.4998572357462
 20
-425.6897412431463
 30
0.0
  0
SPLINE
  5
21F
330
1F
100
AcDbEntity
  8
0
  6
Continuous
 62
     7
370
    25
100
AcDbSpline
210
0.0
220
0.0
230
1.0
 70
     8
 71
     3
 72
    13
 73
     9
 74
     0
 42
0.00000001
 43
0.00000001
 40
0.0
 40
0.0
 40
0.0
 40
0.0
 40
0.1573329737899644
 40
0.33918386743888
 40
0.5206163857281042
 40
0.701658046507112
 40
0.8823359988443211
 40
1.0
 40
1.0
 40
1.0
 40
1.0
 10
-663.393347662782
 20
-864.131558920945
 30
0.0
 10
-661.0929849897575
 20
-863.3705073342749
 30
0.0
 10
-656.1337835639326
 20
-861.7298059970465
 30
0.0
 10
-648.6510458725136
 20
-858.8417380132835
 30
0.0
 10
-640.9356792185948
 20
-855.5580684415127
 30
0.0
 10
-633.3764291160595
 20
-851.9710992612779
 30
0.0
 10
-626.8080049254878
 20
-848.591513852068
 30
0.0
 10
-622.8294166423001
 20
-846.2912553847965
 30
0.0
 10
-621.2602889655848
 20
-845.3840493690733
 30
0.0
  0
SPLINE
  5
220
330
1F
100
AcDbEntity
  8
0
  6
Continuous
 62
     7
370
    25
100
AcDbSpline
210
0.0
220
0.0
230
1.0
 70
     8
 71
     3
 72
    20
 73
    16
 74
     0
 42
0.00000001
 43
0.00000001
 40
0.0
 40
0.0
 40
0.0
 40
0.0
 40
0.0157086501173903
 40
0.1023922637539193
 40
0.1888871790965767
 40
0.2751493743678627
 40
0.3611341924273163
 40
0.44679859540218
 40
0.5321038108554795
 40
0.6170181730097265
 40
0.701519895373683
 40
0.7855994823331357
 40
0.8692615086681249
 40
0.9525255651640467
 40
1.0
 40
1.0
 40
1.0
 40
1.0
 10
-734.0201063521871
 20
-863.7861883394404
 30
0.0
 10
-733.6297057705336
 20
-863.9016344993354
 30
0.0
 10
-731.0849932059516
 20
-864.6541366917588
 30
0.0
 10
-726.4199779961759
 20
-865.7593273168424
 30
0.0
 10
-720.0409433176628
 20
-867.0799468068582
 30
0.0
 10
-713.7267296778608
 20
-868.0728780853104
 30
0.0
 10
-707.4839940366728
 20
-868.7697259187132
 30
0.0
 10
-701.3236030975502
 20
-869.1608182187853
 30
0.0
 10
-695.2552177258635
 20
-869.2484719922022
 30
0.0
 10
-689.2883339647167
 20
-869.0333129022067
 30
0.0
 10
-683.4326174695177
 20
-868.5159779048922
 30
0.0
 10
-677.6946889789367
 20
-867.7036160957356
 30
0.0
 10
-672.0898177870108
 20
-866.5818948584225
 30
0.0
 10
-667.3768551915914
 20
-865.412295348484
 30
0.0
 10
-664.5842877458232
 20
-864.4994412556377
 30
0.0
 10
-663.5702362612257
 20
-864.1679609723328
 30
0.0
  0
SPLINE
  5
221
330
1F
100
AcDbEntity
  8
0
  6
Continuous
 62
     7
370
    25
100
AcDbSpline
210
0.0
220
0.0
230
1.0
 70
     8
 71
     3
 72
    20
 73
    16
 74
     0
 42
0.00000001
 43
0.00000001
 40
0.0
 40
0.0
 40
0.0
 40
0.0
 40
0.0589564737226029
 40
0.140749014917837
 40
0.2228378289034603
 40
0.3052701197557461
 40
0.3880795721618949
 40
0.471285650985687
 40
0.5548937196278901
 40
0.6388959666741343
 40
0.7232730491544482
 40
0.8079962832232913
 40
0.8930301570752524
 40
0.9783349199564583
 40
1.0
 40
1.0
 40
1.0
 40
1.0
 10
-916.7072725045973
 20
-425.872500764556
 30
0.0
 10
-917.695781900147
 20
-426.7740077256373
 30
0.0
 10
-920.055687689548
 20
-428.9262093194909
 30
0.0
 10
-923.5670036941669
 20
-432.6202371255915
 30
0.0
 10
-927.2721508052377
 20
-436.9081058071064
 30
0.0
 10
-930.7787443214057
 20
-441.453186010385
 30
0.0
 10
-934.0905619403579
 20
-446.2403208047381
 30
0.0
 10
-937.200450615218
 20
-451.2679969872563
 30
0.0
 10
-940.1040006067423
 20
-456.5303070601638
 30
0.0
 10
-942.7966571762414
 20
-462.021228125095
 30
0.0
 10
-945.2721585812094
 20
-467.7352034123752
 30
0.0
 10
-947.5324780973435
 20
-473.6602819798155
 30
0.0
 10
-949.5501110752051
 20
-479.8052453413618
 30
0.0
 10
-950.9459710434791
 20
-484.5271264387096
 30
0.0
 10
-951.5937873246932
 20
-487.251659054033
 30
0.0
 10
-951.7249924494487
 20
-487.8034708131075
 30
0.0
  0
SPLINE
  5
222
330
1F
100
AcDbEntity
  8
0
  6
Continuous
 62
     7
370
    25
100
AcDbSpline
210
0.0
220
0.0
230
1.0
 70
     8
 71
     3
 72
    12
 73
     8
 74
     0
 42
0.00000001
 43
0.00000001
 40
0.0
 40
0.0
 40
0.0
 40
0.0
 40
0.0245143052620799
 40
0.2698702054786465
 40
0.5153372051087519
 40
0.7610634353634722
 40
1.0
 40
1.0
 40
1.0
 40
1.0
 10
-672.088461540702
 20
-875.4077090208805
 30
0.0
 10
-671.935851099897
 20
-875.3138675446943
 30
0.0
 10
-670.2558111975662
 20
-874.2807965198356
 30
0.0
 10
-667.201629381342
 20
-872.0545975022873
 30
0.0
 10
-662.9500910945155
 20
-868.7090503662168
 30
0.0
 10
-658.9155669984091
 20
-865.1283038529432
 30
0.0
 10
-656.3904632158578
 20
-862.5471101720785
 30
0.0
 10
-655.1455984779138
 20
-861.2745933680897
 30
0.0
  0
SPLINE
  5
223
330
1F
100
AcDbEntity
  8
0
  6
Continuous
 62
     7
370
    25
100
AcDbSpline
210
0.0
220
0.0
230
1.0
 70
     8
 71
     3
 72
    12
 73
     8
 74
     0
 42
0.00000001
 43
0.00000001
 40
0.0
 40
0.0
 40
0.0
 40
0.0
 40
0.1357655075004406
 40
0.3795078507534586
 40
0.6226788318413223
 40
0.865378685928754
 40
1.0
 40
1.0
 40
1.0
 40
1.0
 10
-909.9381444650414
 20
-420.0043274527586
 30
0.0
 10
-910.93908591296
 20
-420.2395178220906
 30
0.0
 10
-913.7370361775248
 20
-420.896949840181
 30
0.0
 10
-918.195598752147
 20
-422.2930586671087
 30
0.0
 10
-923.3024510321235
 20
-424.1781868878872
 30
0.0
 10
-927.5451171438873
 20
-425.9930461789195
 30
0.0
 10
-930.0258678949132
 20
-427.2824148962433
 30
0.0
 10
-930.910954537722
 20
-427.7424381488361
 30
0.0
  0
LINE
  5
224
330
1F
100
AcDbEntity
  8
0
  6
Continuous
 62
     7
370
    25
100
AcDbLine
 10
-685.9468498609
 20
-883.5765258341
 30
0.0
 11
-676.2691803313
 21
-877.989726133
 31
0.0
  0
LINE
  5
225
330
1F
100
AcDbEntity
  8
0
  6
Continuous
 62
     7
370
    25
100
AcDbLine
 10
-934.9481564642
 20
-429.8960447372
 30
0.0
 11
-944.6258259939
 21
-435.4828444383
 31
0.0
  0
SPLINE
  5
226
330
1F
100
AcDbEntity
  8
0
  6
Continuous
 62
     7
370
    25
100
AcDbSpline
210
0.0
220
0.0
230
1.0
 70
     8
 71
     3
 72
    96
 73
    92
 74
     0
 42
0.00000001
 43
0.00000001
 40
0.0
 40
0.0
 40
0.0
 40
0.0
 40
0.0083860582262496
 40
0.0194769867782002
 40
0.030576888502333
 40
0.041692119088551
 40
0.0528282101913822
 40
0.0639896258737432
 40
0.0751796043666765
 40
0.0864000933912042
 40
0.097651777735849
 40
0.108934188449697
 40
0.120245875295309
 40
0.1315846192707631
 40
0.1429476607680834
 40
0.1543319211990888
 40
0.1657342008383725
 40
0.1771513418997548
 40
0.1885803521319694
 40
0.2000184894629126
 40
0.2114633118970586
 40
0.2229126989027322
 40
0.2343648511661232
 40
0.2458182752411027
 40
0.2572714671876864
 40
0.2687234877770784
 40
0.2801736619221854
 40
0.2916214927337568
 40
0.3030666331882076
 40
0.314508860711889
 40
0.3259480549181583
 40
0.3373841784678295
 40
0.3488172608647598
 40
0.3602473849126231
 40
0.3716746755229456
 40
0.3830992905605848
 40
0.3945214134281079
 40
0.4059412471162451
 40
0.4173590094778387
 40
0.428774929513628
 40
0.4401892444877751
 40
0.4516021977177605
 40
0.4630140369068391
 40
0.4744250129072685
 40
0.485835378819132
 40
0.4972453893430573
 40
0.5086553003154806
 40
0.5200653459906386
 40
0.5314757203065281
 40
0.5428866807213117
 40
0.5542984847017599
 40
0.5657113893148459
 40
0.5771256506730797
 40
0.5885415231589224
 40
0.5999592583506521
 40
0.6113791035597463
 40
0.6228012998742422
 40
0.6342260795835305
 40
0.6456536628373912
 40
0.657084253365802
 40
0.6685180330564962
 40
0.6799551551550816
 40
0.6913957358195276
 40
0.7028398437296204
 40
0.7142874874274199
 40
0.7257386000537137
 40
0.7371930211589794
 40
0.7486504753202123
 40
0.7601105474084163
 40
0.7715726545522936
 40
0.7830360151654202
 40
0.7944993433220959
 40
0.8059611453995891
 40
0.8174197419161061
 40
0.8288731236460838
 40
0.8403189401742353
 40
0.8517545069851101
 40
0.8631768383334525
 40
0.874582713263868
 40
0.8859687809664193
 40
0.8973317087697817
 40
0.9086683712784966
 40
0.9199760726985114
 40
0.9312527871112111
 40
0.9424973947711222
 40
0.9537098881214912
 40
0.9648915206196051
 40
0.9760448753340649
 40
0.9871738382086211
 40
0.9982834714591757
 40
1.0
 40
1.0
 40
1.0
 40
1.0
 10
-948.4595235004349
 20
-437.85773090865
 30
0.0
 10
-949.5967403293027
 20
-438.5979603263274
 30
0.0
 10
-952.2379761211644
 20
-440.3171755037043
 30
0.0
 10
-956.1863724855854
 20
-443.3301462277431
 30
0.0
 10
-960.3306746274511
 20
-446.8391894390845
 30
0.0
 10
-964.2918433669997
 20
-450.6164434943331
 30
0.0
 10
-968.0724021576215
 20
-454.6470296318251
 30
0.0
 10
-971.666046709126
 20
-458.9301133946083
 30
0.0
 10
-975.0687548287437
 20
-463.4606770568721
 30
0.0
 10
-978.2758431632568
 20
-468.2342883390147
 30
0.0
 10
-981.282832410116
 20
-473.2457166087786
 30
0.0
 10
-984.0853107472689
 20
-478.4892396409717
 30
0.0
 10
-986.6790762012703
 20
-483.9585371680311
 30
0.0
 10
-989.0602011224139
 20
-489.6467359829938
 30
0.0
 10
-991.2251044223543
 20
-495.5464484407217
 30
0.0
 10
-993.1706014875223
 20
-501.6498372346942
 30
0.0
 10
-994.893936609432
 20
-507.9486865693378
 30
0.0
 10
-996.3927968871894
 20
-514.4344746353522
 30
0.0
 10
-997.6653108119051
 20
-521.0984403389797
 30
0.0
 10
-998.7100351782271
 20
-527.9316404960559
 30
0.0
 10
-999.5259343751645
 20
-534.9249956048388
 30
0.0
 10
-1000.112355700861
 20
-542.0693241533841
 30
0.0
 10
-1000.46900364797
 20
-549.3553666019843
 30
0.0
 10
-1000.595914194732
 20
-556.7737379435781
 30
0.0
 10
-1000.493442349667
 20
-564.3149997706109
 30
0.0
 10
-1000.162241688549
 20
-571.9696762585805
 30
0.0
 10
-999.6032384325138
 20
-579.7283226225787
 30
0.0
 10
-998.8176164267048
 20
-587.581455849112
 30
0.0
 10
-997.8068081824316
 20
-595.5195421602513
 30
0.0
 10
-996.5724879509637
 20
-603.5329972124279
 30
0.0
 10
-995.1165665190975
 20
-611.6121872616733
 30
0.0
 10
-993.4411872876932
 20
-619.7474314969007
 30
0.0
 10
-991.548723248481
 20
-627.9290056129444
 30
0.0
 10
-989.4417745350381
 20
-636.1471466079623
 30
0.0
 10
-987.1231662833184
 20
-644.3920587336548
 30
0.0
 10
-984.5959465915375
 20
-652.6539204938217
 30
0.0
 10
-981.8633844165942
 20
-660.9228925702228
 30
0.0
 10
-978.9289672841177
 20
-669.1891265492342
 30
0.0
 10
-975.7963987219885
 20
-677.4427743244429
 30
0.0
 10
-972.4695953535203
 20
-685.6739980562188
 30
0.0
 10
-968.9526836073962
 20
-693.8729805774225
 30
0.0
 10
-965.2499960177695
 20
-702.0299361434253
 30
0.0
 10
-961.366067100666
 20
-710.1351214336174
 30
0.0
 10
-957.3056288026515
 20
-718.1788467200429
 30
0.0
 10
-953.0736055253823
 20
-726.1514871264562
 30
0.0
 10
-948.6751087357842
 20
-734.043493907577
 30
0.0
 10
-944.1154341563798
 20
-741.8454005853113
 30
0.0
 10
-939.4000617780118
 20
-749.5478252512756
 30
0.0
 10
-934.5346418092819
 20
-757.1414967636365
 30
0.0
 10
-929.5249841813619
 20
-764.6172706060366
 30
0.0
 10
-924.3770443352479
 20
-771.9661476791795
 30
0.0
 10
-919.0969244635021
 20
-779.1792702645562
 30
0.0
 10
-913.6908658130119
 20
-786.2479318492852
 30
0.0
 10
-908.1652407965103
 20
-793.1635865479594
 30
0.0
 10
-902.5265449676488
 20
-799.9178580706683
 30
0.0
 10
-896.7813889218993
 20
-806.5025481905266
 30
0.0
 10
-890.9364901970948
 20
-812.9096446654245
 30
0.0
 10
-884.9986652609064
 20
-819.1313285718792
 30
0.0
 10
-878.9748216886526
 20
-825.1599810138867
 30
0.0
 10
-872.8719506536818
 20
-830.9881891776025
 30
0.0
 10
-866.6971198741707
 20
-836.608751714761
 30
0.0
 10
-860.457467184402
 20
-842.0146834554847
 30
0.0
 10
-854.1601949247005
 20
-847.1992194764904
 30
0.0
 10
-847.8125653709595
 20
-852.1558185860279
 30
0.0
 10
-841.4218974497365
 20
-856.8781663348785
 30
0.0
 10
-834.9955650045565
 20
-861.3601777264232
 30
0.0
 10
-828.5409968875362
 20
-865.5959998811023
 30
0.0
 10
-822.06567914012
 20
-869.5800150137068
 30
0.0
 10
-815.5771594841851
 20
-873.3068442075682
 30
0.0
 10
-809.0830542635522
 20
-876.7713526119998
 30
0.0
 10
-802.5911092618978
 20
-879.9686315133746
 30
0.0
 10
-796.1091999860658
 20
-882.8940256357251
 30
0.0
 10
-789.6453225144885
 20
-885.5431664138708
 30
0.0
 10
-783.2075560552845
 20
-887.9120123365487
 30
0.0
 10
-776.804086372356
 20
-889.9968655983494
 30
0.0
 10
-770.4432345388967
 20
-891.7943970247842
 30
0.0
 10
-764.1334557865412
 20
-893.3016880410638
 30
0.0
 10
-757.8833278148863
 20
-894.5162783902962
 30
0.0
 10
-751.701525406686
 20
-895.4362170267041
 30
0.0
 10
-745.5967783755902
 20
-896.0601129180848
 30
0.0
 10
-739.5778129398363
 20
-896.3871780218155
 30
0.0
 10
-733.6532726122826
 20
-896.4172648102734
 30
0.0
 10
-727.8316405404424
 20
-896.1508588892357
 30
0.0
 10
-722.1211024857763
 20
-895.5891428397493
 30
0.0
 10
-716.5296106674766
 20
-894.7336748849937
 30
0.0
 10
-711.0642259252085
 20
-893.5873659951204
 30
0.0
 10
-705.7332156205089
 20
-892.1505030053662
 30
0.0
 10
-700.5380267362547
 20
-890.4350818093344
 30
0.0
 10
-695.5030573101642
 20
-888.4109953681345
 30
0.0
 10
-691.9544533230566
 20
-886.8262495737536
 30
0.0
 10
-690.1328422273419
 20
-885.8347371858966
 30
0.0
 10
-689.8890555445498
 20
-885.7020428272864
 30
0.0
  0
LWPOLYLINE
  5
227
330
1F
100
AcDbEntity
  8
0
  6
Continuous
 62
     7
370
    25
100
AcDbPolyline
 90
      169
 70
   128
 43
0.0
 10
-771.9406922407
 20
-429.8332628749
 10
-771.8167270107
 20
-437.5590575171
 10
-771.4450046972
 20
-445.417174145
 10
-770.8260451876
 20
-453.3966224719
 10
-769.9607141526
 20
-461.4862425177
 10
-768.850221836
 20
-469.6747202173
 10
-767.4961213617
 20
-477.9506032443
 10
-765.9003065616
 20
-486.3023170278
 10
-764.065009327
 20
-494.7181809411
 10
-761.9927964872
 20
-503.1864246373
 10
-759.686566219
 20
-511.695204512
 10
-757.1495439941
 20
-520.2326202672
 10
-754.3852780674
 20
-528.7867315549
 10
-751.3976345149
 20
-537.3455746769
 10
-748.1907918261
 20
-545.8971793173
 10
-744.7692350606
 20
-554.4295852838
 10
-741.1377495749
 20
-562.9308592349
 10
-737.3014143297
 20
-571.3891113705
 10
-733.2655947869
 20
-579.79251206
 10
-729.0359354049
 20
-588.1293083878
 10
-724.618351745
 20
-596.3878405904
 10
-720.0190221972
 20
-604.5565583636
 10
-715.2443793399
 20
-612.6240370171
 10
-710.3011009428
 20
-620.5789934524
 10
-705.1961006278
 20
-628.4103019437
 10
-699.9365181993
 20
-636.1070096979
 10
-694.5297096591
 20
-643.6583521733
 10
-688.9832369178
 20
-651.0537681345
 10
-683.3048572189
 20
-658.2829144238
 10
-677.5025122901
 20
-665.3356804262
 10
-671.5843172353
 20
-672.2022022108
 10
-665.5585491854
 20
-678.872876326
 10
-659.433635722
 20
-685.3383732308
 10
-653.2181430904
 20
-691.5896503433
 10
-646.920764219
 20
-697.617964687
 10
-640.5503065616
 20
-703.4148851194
 10
-634.1156797793
 20
-708.9723041229
 10
-627.6258832794
 20
-714.2824491446
 10
-621.0899936293
 20
-719.3378934666
 10
-614.5171518616
 20
-724.1315665928
 10
-607.9165506898
 20
-728.6567641378
 10
-601.2974216515
 20
-732.9071572038
 10
-594.6690221972
 20
-736.8768012316
 10
-588.0406227429
 20
-740.5601443153
 10
-581.4214937046
 20
-743.9520349663
 10
-574.8208925328
 20
-747.047729319
 10
-568.2480507651
 20
-749.8428977648
 10
-561.712161115
 20
-752.333631008
 10
-555.2223646151
 20
-754.5164455329
 10
-548.7877378328
 20
-756.3882884759
 10
-542.4172801754
 20
-757.9465418955
 10
-536.119901304
 20
-759.1890264334
 10
-529.9044086724
 20
-760.1140043625
 10
-523.779495209
 20
-760.7201820177
 10
-517.7537271591
 20
-761.0067116046
 10
-511.8355321043
 20
-760.9731923857
 10
-506.0331871755
 20
-760.6196712407
 10
-500.3548074766
 20
-759.9466426009
 10
-494.8083347353
 20
-758.9550477576
 10
-489.4015261951
 20
-757.646273546
 10
-484.1419437666
 20
-756.022150405
 10
-479.0369434516
 20
-754.0849498179
 10
-474.0936650545
 20
-751.8373811346
 10
-469.3190221972
 20
-749.2825877834
 10
-464.7196926494
 20
-746.4241428737
 10
-460.3021089895
 20
-743.2660441992
 10
-456.0724496075
 20
-739.8127086464
 10
-452.0366300647
 20
-736.0689660174
 10
-448.2002948195
 20
-732.0400522748
 10
-444.5688093338
 20
-727.7316022187
 10
-441.1472525683
 20
-723.1496416062
 10
-437.9404098795
 20
-718.3005787234
 10
-434.952766327
 20
-713.1911954233
 10
-432.1885004003
 20
-707.8286376404
 10
-429.6514781754
 20
-702.2204053967
 10
-427.3452479072
 20
-696.374342312
 10
-425.2730350674
 20
-690.2986246344
 10
-423.4377378328
 20
-684.0017498042
 10
-421.8419230327
 20
-677.4925245703
 10
-420.4878225584
 20
-670.7800526729
 10
-419.3773302418
 20
-663.8737221107
 10
-418.5119992068
 20
-656.7831920117
 10
-417.8930396972
 20
-649.5183791232
 10
-417.5213173837
 20
-642.0894439431
 10
-417.3973521537
 20
-634.5067765088
 10
-417.5213173837
 20
-626.7809818666
 10
-417.8930396972
 20
-618.9228652387
 10
-418.5119992068
 20
-610.9434169119
 10
-419.3773302418
 20
-602.8537968661
 10
-420.4878225584
 20
-594.6653191665
 10
-421.8419230327
 20
-586.3894361395
 10
-423.4377378328
 20
-578.0377223559
 10
-425.2730350674
 20
-569.6218584427
 10
-427.3452479072
 20
-561.1536147464
 10
-429.6514781754
 20
-552.6448348717
 10
-432.1885004003
 20
-544.1074191165
 10
-434.952766327
 20
-535.5533078289
 10
-437.9404098795
 20
-526.9944647068
 10
-441.1472525683
 20
-518.4428600664
 10
-444.5688093338
 20
-509.9104541
 10
-448.2002948195
 20
-501.4091801488
 10
-452.0366300647
 20
-492.9509280132
 10
-456.0724496075
 20
-484.5475273237
 10
-460.3021089895
 20
-476.2107309959
 10
-464.7196926494
 20
-467.9521987934
 10
-469.3190221972
 20
-459.7834810202
 10
-474.0936650545
 20
-451.7160023667
 10
-479.0369434516
 20
-443.7610459314
 10
-484.1419437666
 20
-435.9297374401
 10
-489.4015261951
 20
-428.2330296858
 10
-494.8083347353
 20
-420.6816872105
 10
-500.3548074766
 20
-413.2862712492
 10
-506.0331871755
 20
-406.05712496
 10
-511.8355321043
 20
-399.0043589576
 10
-517.7537271591
 20
-392.137837173
 10
-523.779495209
 20
-385.4671630578
 10
-529.9044086724
 20
-379.0016661529
 10
-536.119901304
 20
-372.7503890405
 10
-542.4172801754
 20
-366.7220746967
 10
-548.7877378328
 20
-360.9251542644
 10
-555.2223646151
 20
-355.3677352608
 10
-561.712161115
 20
-350.0575902391
 10
-568.2480507651
 20
-345.0021459171
 10
-574.8208925328
 20
-340.208472791
 10
-581.4214937046
 20
-335.683275246
 10
-588.0406227429
 20
-331.43288218
 10
-594.6690221972
 20
-327.4632381521
 10
-601.2974216515
 20
-323.7798950685
 10
-607.9165506898
 20
-320.3880044174
 10
-614.5171518616
 20
-317.2923100647
 10
-621.0899936293
 20
-314.4971416189
 10
-627.6258832794
 20
-312.0064083757
 10
-634.1156797793
 20
-309.8235938509
 10
-640.5503065616
 20
-307.9517509078
 10
-646.920764219
 20
-306.3934974882
 10
-653.2181430904
 20
-305.1510129504
 10
-659.433635722
 20
-304.2260350212
 10
-665.5585491854
 20
-303.6198573661
 10
-671.5843172353
 20
-303.3333277791
 10
-677.5025122901
 20
-303.366846998
 10
-683.3048572189
 20
-303.720368143
 10
-688.9832369178
 20
-304.3933967828
 10
-694.5297096591
 20
-305.3849916261
 10
-699.9365181993
 20
-306.6937658378
 10
-705.1961006278
 20
-308.3178889787
 10
-710.3011009428
 20
-310.2550895659
 10
-715.2443793399
 20
-312.5026582491
 10
-720.0190221972
 20
-315.0574516003
 10
-724.618351745
 20
-317.91589651
 10
-729.0359354049
 20
-321.0739951845
 10
-733.2655947869
 20
-324.5273307373
 10
-737.3014143297
 20
-328.2710733663
 10
-741.1377495749
 20
-332.2999871089
 10
-744.7692350606
 20
-336.608437165
 10
-748.1907918261
 20
-341.1903977776
 10
-751.3976345149
 20
-346.0394606604
 10
-754.3852780674
 20
-351.1488439605
 10
-757.1495439941
 20
-356.5114017434
 10
-759.686566219
 20
-362.1196339871
 10
-761.9927964872
 20
-367.9656970717
 10
-764.065009327
 20
-374.0414147494
 10
-765.9003065616
 20
-380.3382895796
 10
-767.4961213617
 20
-386.8475148134
 10
-768.850221836
 20
-393.5599867109
 10
-769.9607141526
 20
-400.466317273
 10
-770.8260451876
 20
-407.5568473721
 10
-771.4450046972
 20
-414.8216602605
 10
-771.8167270107
 20
-422.2505954407
 10
-771.9406922407
 20
-429.8332628749
  0
ARC
  5
228
330
1F
100
AcDbEntity
  8
0
  6
Continuous
 62
     7
370
    25
100
AcDbCircle
 10
-514.1336782334
 20
-684.7410939131
 30
0.0
 40
86.30156988133793
100
AcDbArc
 50
296.9310086253
 51
303.0692027438
  0
LWPOLYLINE
  5
229
330
1F
100
AcDbEntity
  8
0
  6
Continuous
 62
     7
370
    25
100
AcDbPolyline
 90
        3
 70
   128
 43
0.0
 10
-733.4425962755
 20
-313.7005906372
 10
-728.8837269184
 20
-310.9430019644
 10
-725.9736371352
 20
-309.3759345301
  0
LINE
  5
22A
330
1F
100
AcDbEntity
  8
0
  6
Continuous
 62
     7
370
    25
100
AcDbLine
 10
-739.3430340428
 20
-316.9756111424
 30
0.0
 11
-742.9698281717
 21
-319.1901504789
 31
0.0
  0
LWPOLYLINE
  5
22B
330
1F
100
AcDbEntity
  8
0
  6
Continuous
 62
     7
370
    25
100
AcDbPolyline
 90
        3
 70
   128
 43
0.0
 10
-484.3770697891
 20
-767.0931071734
 10
-482.0300584996
 20
-765.8413868439
 10
-480.6640579099
 20
-765.0692925381
  0
LWPOLYLINE
  5
22C
330
1F
100
AcDbEntity
  8
0
  6
Continuous
 62
     7
370
    25
100
AcDbPolyline
 90
      160
 70
   128
 43
0.0
 10
-754.4751547454
 20
-439.9159030559
 10
-754.3503955924
 20
-432.6974463344
 10
-753.9763129303
 20
-425.6343042282
 10
-753.3534908446
 20
-418.737504995
 10
-752.482901798
 20
-412.0178171683
 10
-751.3659051121
 20
-405.485732743
 10
-750.0042448446
 20
-399.1514507933
 10
-748.4000470663
 20
-393.0248615488
 10
-746.5558165416
 20
-387.1155309512
 10
-744.4744328177
 20
-381.4326857187
 10
-742.159145728
 20
-375.9851989396
 10
-739.6135703185
 20
-370.7815762179
 10
-736.8416812031
 20
-365.8299423927
 10
-733.8478063576
 20
-361.1380288525
 10
-730.6366203621
 20
-356.7131614632
 10
-727.2131371025
 20
-352.5622491301
 10
-723.5827019413
 20
-348.69177301
 10
-719.7509833722
 20
-345.1077763919
 10
-715.7239641688
 20
-341.8158552611
 10
-711.5079320436
 20
-338.8211495616
 10
-707.1094698304
 20
-336.128335171
 10
-702.5354452056
 20
-333.7416165992
 10
-697.7929999658
 20
-331.6647204239
 10
-692.8895388763
 20
-329.9008894721
 10
-687.8327181094
 20
-328.4528777563
 10
-682.6304332906
 20
-327.3229461749
 10
-677.29080717
 20
-326.5128589821
 10
-671.82217694
 20
-326.0238810327
 10
-666.2330812175
 20
-325.8567758078
 10
-660.532246712
 20
-326.0118042223
 10
-654.7285745998
 20
-326.4887242179
 10
-648.8311266261
 20
-327.2867911405
 10
-642.8491109557
 20
-328.4047589034
 10
-636.791867796
 20
-329.8408819327
 10
-630.6688548133
 20
-331.5929178926
 10
-624.4896323653
 20
-333.658131187
 10
-618.2638485745
 20
-336.0332972306
 10
-612.0012242631
 20
-338.7147074835
 10
-605.7115377757
 20
-341.6981752418
 10
-599.4046097111
 20
-344.9790421749
 10
-593.0902875886
 20
-348.5521855985
 10
-586.7784304729
 20
-352.4120264733
 10
-580.4788935795
 20
-356.5525381159
 10
-574.2015128874
 20
-360.9672556089
 10
-567.9560897815
 20
-365.6492858951
 10
-561.7523757486
 20
-370.5913185399
 10
-555.6000571516
 20
-375.785637146
 10
-549.5087401058
 20
-381.2241314015
 10
-543.4879354796
 20
-386.8983097432
 10
-537.5470440448
 20
-392.7993126152
 10
-531.6953417981
 20
-398.917926302
 10
-525.9419654778
 20
-405.2445973147
 10
-520.2958982983
 20
-411.7694473075
 10
-514.7659559231
 20
-418.4822885016
 10
-509.3607727009
 20
-425.3726395924
 10
-504.0887881835
 20
-432.4297421146
 10
-498.958233949
 20
-439.6425772404
 10
-493.9771207488
 20
-446.999882984
 10
-489.1532259999
 20
-454.4901717856
 10
-484.4940816412
 20
-462.1017484487
 10
-480.0069623737
 20
-469.8227283996
 10
-475.6988743014
 20
-477.6410562449
 10
-471.5765439924
 20
-485.5445245936
 10
-467.6464079762
 20
-493.5207931181
 10
-463.9146026936
 20
-501.557407822
 10
-460.3869549156
 20
-509.6418204854
 10
-457.0689726454
 20
-517.7614082575
 10
-453.9658365184
 20
-525.9034933661
 10
-451.0823917134
 20
-534.0553629116
 10
-448.4231403872
 20
-542.2042887174
 10
-445.992234645
 20
-550.3375472034
 10
-443.7934700575
 20
-558.4424392517
 10
-441.8302797347
 20
-566.5063100356
 10
-440.1057289652
 20
-574.5165687781
 10
-438.6225104303
 20
-582.4607084111
 10
-437.3829399998
 20
-590.3263251034
 10
-436.3889531155
 20
-598.1011376285
 10
-435.6421017702
 20
-605.7730065394
 10
-435.1435520835
 20
-613.3299531235
 10
-434.8940824816
 20
-620.7601781058
 10
-434.8940824816
 20
-628.052080072
 10
-435.1435520835
 20
-635.1942735829
 10
-435.6421017702
 20
-642.175606951
 10
-436.3889531155
 20
-648.9851796531
 10
-437.3829399998
 20
-655.6123593496
 10
-438.6225104303
 20
-662.0467984863
 10
-440.1057289652
 20
-668.2784504502
 10
-441.8302797347
 20
-674.2975852565
 10
-443.7934700575
 20
-680.0948047408
 10
-445.992234645
 20
-685.6610572329
 10
-448.4231403872
 20
-690.9876516904
 10
-451.0823917134
 20
-696.0662712683
 10
-453.9658365184
 20
-700.888986305
 10
-457.0689726454
 20
-705.4482667035
 10
-460.3869549156
 20
-709.7369936886
 10
-463.9146026936
 20
-713.7484709224
 10
-467.6464079762
 20
-717.4764349592
 10
-471.5765439924
 20
-720.9150650257
 10
-475.6988743014
 20
-724.0589921093
 10
-480.0069623737
 20
-726.9033073411
 10
-484.4940816412
 20
-729.4435696605
 10
-489.1532259999
 20
-731.6758127494
 10
-493.9771207488
 20
-733.5965512252
 10
-498.958233949
 20
-735.2027860827
 10
-504.0887881835
 20
-736.492009377
 10
-509.3607727009
 20
-737.4622081389
 10
-514.7659559231
 20
-738.1118675181
 10
-520.2958982983
 20
-738.4399731488
 10
-525.9419654779
 20
-738.4460127328
 10
-531.6953417981
 20
-738.1299768402
 10
-537.5470440448
 20
-737.4923589233
 10
-543.4879354796
 20
-736.534154547
 10
-549.5087401058
 20
-735.2568598336
 10
-555.6000571516
 20
-733.6624691272
 10
-561.7523757486
 20
-731.7534718795
 10
-567.9560897815
 20
-729.5328487633
 10
-574.2015128874
 20
-727.0040670179
 10
-580.4788935795
 20
-724.1710750357
 10
-586.7784304729
 20
-721.0382961975
 10
-593.0902875886
 20
-717.6106219656
 10
-599.4046097111
 20
-713.8934042463
 10
-605.7115377757
 20
-709.8924470339
 10
-612.0012242631
 20
-705.6139973482
 10
-618.2638485745
 20
-701.0647354804
 10
-624.4896323653
 20
-696.2517645628
 10
-630.6688548133
 20
-691.1825994784
 10
-636.791867796
 20
-685.8651551265
 10
-642.8491109557
 20
-680.3077340654
 10
-648.8311266261
 20
-674.5190135483
 10
-654.7285745998
 20
-668.5080319751
 10
-660.532246712
 20
-662.28417478
 10
-666.2330812175
 20
-655.8571597772
 10
-671.82217694
 20
-649.2370219878
 10
-677.29080717
 20
-642.4340979709
 10
-682.6304332906
 20
-635.459009685
 10
-687.8327181094
 20
-628.3226479023
 10
-692.8895388763
 20
-621.0361552046
 10
-697.7929999658
 20
-613.6109085854
 10
-702.5354452056
 20
-606.0585016859
 10
-707.1094698304
 20
-598.3907266927
 10
-711.5079320436
 20
-590.6195559265
 10
-715.7239641688
 20
-582.7571231478
 10
-719.7509833722
 20
-574.8157046121
 10
-723.5827019413
 20
-566.8076999018
 10
-727.2131371025
 20
-558.7456125655
 10
-730.6366203621
 20
-550.6420305957
 10
-733.8478063576
 20
-542.5096067736
 10
-736.8416812031
 20
-534.3610389137
 10
-739.6135703185
 20
-526.2090500374
 10
-742.159145728
 20
-518.0663685075
 10
-744.4744328177
 20
-509.9457081548
 10
-746.5558165416
 20
-501.8597484264
 10
-748.4000470663
 20
-493.8211145885
 10
-750.0042448446
 20
-485.8423580136
 10
-751.3659051121
 20
-477.935936583
 10
-752.482901798
 20
-470.1141952352
 10
-753.3534908446
 20
-462.3893466908
 10
-753.9763129303
 20
-454.7734523839
 10
-754.3503955924
 20
-447.2784036293
 10
-754.4751547454
 20
-439.9159030559
  0
ARC
  5
22D
330
1F
100
AcDbEntity
  8
0
  6
Continuous
 62
     7
370
    25
100
AcDbCircle
 10
-569.5258001948
 20
-438.4598499373
 30
0.0
 40
225.7495287953635
100
AcDbArc
 50
175.9908794687
 51
180.0573200417
  0
ARC
  5
22E
330
1F
100
AcDbEntity
  8
0
  6
Continuous
 62
     7
370
    25
100
AcDbCircle
 10
-489.1128351549
 20
-535.5010269652
 30
0.0
 40
250.5015653102103
100
AcDbArc
 50
233.8391663406
 51
243.3802270453
  0
ARC
  5
22F
330
1F
100
AcDbEntity
  8
0
  6
Continuous
 62
     7
370
    25
100
AcDbCircle
 10
-529.7689198163
 20
-438.2186426127
 30
0.0
 40
265.5067069994479
100
AcDbArc
 50
180.1007889633
 51
185.7538192742
  0
LWPOLYLINE
  5
230
330
1F
100
AcDbEntity
  8
0
  6
Continuous
 62
     7
370
    25
100
AcDbPolyline
 90
        3
 70
   128
 43
0.0
 10
-795.2752160198
 20
-441.3910335221
 10
-795.1500921596
 20
-449.1890366322
 10
-794.7929678458
 20
-456.8291136187
  0
ARC
  5
231
330
1F
100
AcDbEntity
  8
0
  6
Continuous
 62
     7
370
    25
100
AcDbCircle
 10
-487.3526570079
 20
-528.4457085756
 30
0.0
 40
257.4984364738916
100
AcDbArc
 50
235.1443826114
 51
239.929602135
  0
SPLINE
  5
232
330
1F
100
AcDbEntity
  8
0
  6
Continuous
 62
     7
370
    25
100
AcDbSpline
210
0.0
220
0.0
230
1.0
 70
    11
 71
     3
 72
    66
 73
    62
 74
     0
 42
0.00000001
 43
0.00000001
 40
0.0
 40
0.0
 40
0.0
 40
0.0
 40
0.0312500000000004
 40
0.0312500000000004
 40
0.0625000000000008
 40
0.0625000000000008
 40
0.0937500000000012
 40
0.0937500000000012
 40
0.1250000000000016
 40
0.1250000000000016
 40
0.1562500000000019
 40
0.1562500000000019
 40
0.1875000000000023
 40
0.1875000000000023
 40
0.2187500000000027
 40
0.2187500000000027
 40
0.2500000000000031
 40
0.2500000000000031
 40
0.2812500000000035
 40
0.2812500000000035
 40
0.3125000000000039
 40
0.3125000000000039
 40
0.3437500000000043
 40
0.3437500000000043
 40
0.3750000000000047
 40
0.3750000000000047
 40
0.4062500000000051
 40
0.4062500000000051
 40
0.4375000000000054
 40
0.4375000000000054
 40
0.4687500000000058
 40
0.4687500000000058
 40
0.5000000000000062
 40
0.5000000000000062
 40
0.5312500000000067
 40
0.5312500000000067
 40
0.562500000000007
 40
0.562500000000007
 40
0.5937500000000073
 40
0.5937500000000073
 40
0.6250000000000078
 40
0.6250000000000078
 40
0.6562500000000082
 40
0.6562500000000082
 40
0.6875000000000085
 40
0.6875000000000085
 40
0.7500000000000071
 40
0.7500000000000071
 40
0.7812500000000059
 40
0.7812500000000059
 40
0.8125000000000048
 40
0.8125000000000048
 40
0.8437500000000036
 40
0.8437500000000036
 40
0.8750000000000024
 40
0.8750000000000024
 40
0.9062500000000019
 40
0.9062500000000019
 40
0.9375000000000014
 40
0.9375000000000014
 40
1.0
 40
1.0
 40
1.0
 40
1.0
 10
-650.2476151984649
 20
-335.2510276801005
 30
0.0
 10
-650.4190240169754
 20
-335.3499798847698
 30
0.0
 10
-650.5702277264897
 20
-335.4512458161963
 30
0.0
 10
-650.8340666529564
 20
-335.6582363770007
 30
0.0
 10
-650.9475659372285
 20
-335.7652077776901
 30
0.0
 10
-651.1270938795965
 20
-335.9761128897662
 30
0.0
 10
-651.1940160179668
 20
-336.0802724262499
 30
0.0
 10
-651.2828478583357
 20
-336.2862252383566
 30
0.0
 10
-651.303966292169
 20
-336.3874970556695
 30
0.0
 10
-651.2998122036323
 20
-336.5793707395253
 30
0.0
 10
-651.2749278395705
 20
-336.6714135123871
 30
0.0
 10
-651.1795607506164
 20
-336.845750811535
 30
0.0
 10
-651.1103781282965
 20
-336.9260241782458
 30
0.0
 10
-650.9310385966314
 20
-337.0736021478921
 30
0.0
 10
-650.8193896182099
 20
-337.1414773323874
 30
0.0
 10
-650.5610745638188
 20
-337.2599602728167
 30
0.0
 10
-650.4148904886702
 20
-337.3107946859542
 30
0.0
 10
-650.0887163934772
 20
-337.3958114338229
 30
0.0
 10
-649.9072198681788
 20
-337.4299860818462
 30
0.0
 10
-649.5240463262343
 20
-337.4784678728791
 30
0.0
 10
-649.3210084626068
 20
-337.4932896896282
 30
0.0
 10
-648.891412112159
 20
-337.5034569913787
 30
0.0
 10
-648.6656175774785
 20
-337.498522901953
 30
0.0
 10
-648.209365171349
 20
-337.4688999830601
 30
0.0
 10
-647.9766327850949
 20
-337.4443157550625
 30
0.0
 10
-647.5014534922996
 20
-337.3742410568962
 30
0.0
 10
-647.2651630879815
 20
-337.3295711967981
 30
0.0
 10
-646.8011335162769
 20
-337.2222635754032
 30
0.0
 10
-646.5702454247728
 20
-337.1587682551482
 30
0.0
 10
-646.125997010815
 20
-337.0151916416873
 30
0.0
 10
-645.915294899896
 20
-336.9362001733359
 30
0.0
 10
-645.5165493911306
 20
-336.7638221916329
 30
0.0
 10
-645.3271754639846
 20
-336.6694261648487
 30
0.0
 10
-644.988365422927
 20
-336.4739861991354
 30
0.0
 10
-644.8368260974912
 20
-336.3722432864545
 30
0.0
 10
-644.5701539519565
 20
-336.1606007993236
 30
0.0
 10
-644.4576006505678
 20
-336.0524312110911
 30
0.0
 10
-644.2781955411905
 20
-335.8371750755916
 30
0.0
 10
-644.2098700121917
 20
-335.728166176785
 30
0.0
 10
-644.1208738331763
 20
-335.5149973835094
 30
0.0
 10
-644.1000615687755
 20
-335.4117333121467
 30
0.0
 10
-644.1042896657839
 20
-335.2118409709252
 30
0.0
 10
-644.1300682357544
 20
-335.1148013675586
 30
0.0
 10
-644.2254140795334
 20
-334.9354778958448
 30
0.0
 10
-644.2947535601335
 20
-334.8521304054886
 30
0.0
 10
-644.5681337925643
 20
-334.621401926307
 30
0.0
 10
-644.8302798168206
 20
-334.4995236614411
 30
0.0
 10
-645.3246324657572
 20
-334.3719019586519
 30
0.0
 10
-645.5028732303957
 20
-334.3394221433028
 30
0.0
 10
-645.8855092811557
 20
-334.2939752651
 30
0.0
 10
-646.0922856819501
 20
-334.281036320568
 30
0.0
 10
-646.5207344216856
 20
-334.2761561185903
 30
0.0
 10
-646.7417891934726
 20
-334.2839408498734
 30
0.0
 10
-647.1976753992325
 20
-334.3199157770496
 30
0.0
 10
-647.4346839409033
 20
-334.3486044117744
 30
0.0
 10
-647.9035427152727
 20
-334.4247748182286
 30
0.0
 10
-648.1372710661824
 20
-334.4722377516293
 30
0.0
 10
-648.6033208329412
 20
-334.5863872621337
 30
0.0
 10
-648.8347494078861
 20
-334.6531407546221
 30
0.0
 10
-649.4944158846708
 20
-334.8736262733188
 30
0.0
 10
-649.9047975614438
 20
-335.053123270762
 30
0.0
 10
-650.2476151984648
 20
-335.2510276801005
 30
0.0
  0
SPLINE
  5
233
330
1F
100
AcDbEntity
  8
0
  6
Continuous
 62
     7
370
    25
100
AcDbSpline
210
0.0
220
0.0
230
1.0
 70
    11
 71
     3
 72
    66
 73
    62
 74
     0
 42
0.00000001
 43
0.00000001
 40
0.0
 40
0.0
 40
0.0
 40
0.0
 40
0.0312499999999995
 40
0.0312499999999995
 40
0.062499999999999
 40
0.062499999999999
 40
0.0937499999999985
 40
0.0937499999999985
 40
0.124999999999998
 40
0.124999999999998
 40
0.1562499999999975
 40
0.1562499999999975
 40
0.187499999999997
 40
0.187499999999997
 40
0.2187499999999965
 40
0.2187499999999965
 40
0.249999999999996
 40
0.249999999999996
 40
0.2812499999999955
 40
0.2812499999999955
 40
0.312499999999995
 40
0.312499999999995
 40
0.3437499999999945
 40
0.3437499999999945
 40
0.374999999999994
 40
0.374999999999994
 40
0.4062499999999935
 40
0.4062499999999935
 40
0.437499999999993
 40
0.437499999999993
 40
0.4687499999999925
 40
0.4687499999999925
 40
0.499999999999992
 40
0.499999999999992
 40
0.5312499999999916
 40
0.5312499999999916
 40
0.562499999999991
 40
0.562499999999991
 40
0.5937499999999905
 40
0.5937499999999905
 40
0.62499999999999
 40
0.62499999999999
 40
0.6562499999999901
 40
0.6562499999999901
 40
0.6874999999999903
 40
0.6874999999999903
 40
0.7499999999999916
 40
0.7499999999999916
 40
0.7812499999999926
 40
0.7812499999999926
 40
0.8124999999999937
 40
0.8124999999999937
 40
0.8437499999999947
 40
0.8437499999999947
 40
0.8749999999999958
 40
0.8749999999999958
 40
0.9062499999999968
 40
0.9062499999999968
 40
0.9374999999999979
 40
0.9374999999999979
 40
1.0
 40
1.0
 40
1.0
 40
1.0
 10
-565.3948014560792
 20
-382.6163596146712
 30
0.0
 10
-565.2234087754606
 20
-382.5174167262086
 30
0.0
 10
-565.0379160396045
 20
-382.4352103513421
 30
0.0
 10
-564.6399834201238
 20
-382.3028259087034
 30
0.0
 10
-564.4248478449573
 20
-382.2524127602364
 30
0.0
 10
-563.9822399340622
 20
-382.1879955838055
 30
0.0
 10
-563.7547212510502
 20
-382.1733982873763
 30
0.0
 10
-563.2874384471869
 20
-382.1791411962261
 30
0.0
 10
-563.048288508787
 20
-382.199948359395
 30
0.0
 10
-562.5783178651056
 20
-382.2747283573976
 30
0.0
 10
-562.3443164562891
 20
-382.3288343934051
 30
0.0
 10
-561.8819979464442
 20
-382.4703100702594
 30
0.0
 10
-561.6597928868674
 20
-382.555717576709
 30
0.0
 10
-561.2324141123706
 20
-382.7545047051298
 30
0.0
 10
-561.0252887492253
 20
-382.8692921977831
 30
0.0
 10
-560.6408187584111
 20
-383.1205288191426
 30
0.0
 10
-560.4632162707118
 20
-383.2566001191219
 30
0.0
 10
-560.1369143558181
 20
-383.549413611931
 30
0.0
 10
-559.9877297670608
 20
-383.7073136392652
 30
0.0
 10
-559.7306980076983
 20
-384.0316777254237
 30
0.0
 10
-559.6211011603352
 20
-384.1994306936573
 30
0.0
 10
-559.440671712411
 20
-384.546276115644
 30
0.0
 10
-559.3708297494577
 20
-384.7245351325245
 30
0.0
 10
-559.2767802243419
 20
-385.0774595259584
 30
0.0
 10
-559.2515313914332
 20
-385.2539310137017
 30
0.0
 10
-559.2472033846166
 20
-385.6067386904374
 30
0.0
 10
-559.2683869673565
 20
-385.7785340721937
 30
0.0
 10
-559.3561415511932
 20
-386.1084654422089
 30
0.0
 10
-559.4235575398195
 20
-386.2687360817814
 30
0.0
 10
-559.6037548342318
 20
-386.5693753518694
 30
0.0
 10
-559.7147666968342
 20
-386.7077184447448
 30
0.0
 10
-559.9782735856303
 20
-386.9605405659955
 30
0.0
 10
-560.1327895827397
 20
-387.0757999808254
 30
0.0
 10
-560.4713103967717
 20
-387.271538453725
 30
0.0
 10
-560.6560837898862
 20
-387.3533700306243
 30
0.0
 10
-561.0571495538427
 20
-387.4844910575986
 30
0.0
 10
-561.2705611863047
 20
-387.5324456965917
 30
0.0
 10
-561.7105477766901
 20
-387.5920350794947
 30
0.0
 10
-561.9411910571184
 20
-387.6041370203645
 30
0.0
 10
-562.4081165947309
 20
-387.5922535580714
 30
0.0
 10
-562.6423247829408
 20
-387.5687292883069
 30
0.0
 10
-563.1122244380209
 20
-387.4878957487352
 30
0.0
 10
-563.349052179717
 20
-387.4298706807278
 30
0.0
 10
-563.8051522699635
 20
-387.2849079076508
 30
0.0
 10
-564.0268268230941
 20
-387.1977276770736
 30
0.0
 10
-564.6726410127517
 20
-386.8919624758194
 30
0.0
 10
-565.0603097825727
 20
-386.637465780419
 30
0.0
 10
-565.5551078969356
 20
-386.1957885346628
 30
0.0
 10
-565.70198907454
 20
-386.0417459812572
 30
0.0
 10
-565.9605777978952
 20
-385.720352179158
 30
0.0
 10
-566.0731837639134
 20
-385.5511258120523
 30
0.0
 10
-566.2550824348939
 20
-385.2083516263811
 30
0.0
 10
-566.3245838633864
 20
-385.0355054673058
 30
0.0
 10
-566.4204813441737
 20
-384.6867564059579
 30
0.0
 10
-566.4465802360028
 20
-384.5092003256028
 30
0.0
 10
-566.4514658543294
 20
-384.1653388878746
 30
0.0
 10
-566.4310524380942
 20
-383.9976336734535
 30
0.0
 10
-566.3430820027413
 20
-383.6707715859388
 30
0.0
 10
-566.2749944224456
 20
-383.5123264749561
 30
0.0
 10
-566.0072714068498
 20
-383.0720728697543
 30
0.0
 10
-565.7375868173167
 20
-382.8142453915965
 30
0.0
 10
-565.3948014560793
 20
-382.6163596146713
 30
0.0
  0
LINE
  5
234
330
1F
100
AcDbEntity
  8
0
  6
Continuous
 62
     7
370
    25
100
AcDbLine
 10
-916.5062677228
 20
-425.6485711068
 30
0.0
 11
-916.7029882474
 21
-425.8265586806
 31
0.0
  0
LINE
  5
235
330
1F
100
AcDbEntity
  8
0
  6
Continuous
 62
     7
370
    25
100
AcDbLine
 10
-663.5348354589
 20
-864.1972033856
 30
0.0
 11
-663.3672182158
 21
-864.1431089071
 31
0.0
  0
ARC
  5
236
330
1F
100
AcDbEntity
  8
0
  6
Continuous
 62
     7
370
    25
100
AcDbCircle
 10
-788.9373147775
 20
-528.8628960756
 30
0.0
 40
167.9093134550031
100
AcDbArc
 50
165.9022234013
 51
169.7791504359
  0
ARC
  5
237
330
1F
100
AcDbEntity
  8
0
  6
Continuous
 62
     7
370
    25
100
AcDbCircle
 10
-688.4997544977
 20
-700.5245560301
 30
0.0
 40
169.5060381595706
100
AcDbArc
 50
248.9122644938
 51
254.348607372
  0
LINE
  5
238
330
1F
100
AcDbEntity
  8
0
  6
Continuous
 62
     7
370
    25
100
AcDbLine
 10
-673.836222941
 20
-867.2112115869
 30
0.0
 11
-673.1287782295
 21
-866.8472896897
 31
0.0
  0
LINE
  5
239
330
1F
100
AcDbEntity
  8
0
  6
Continuous
 62
     7
370
    25
100
AcDbLine
 10
-923.6662452086
 20
-432.7089677598
 30
0.0
 11
-924.4295598793
 21
-433.200142998
 31
0.0
  0
ARC
  5
23A
330
1F
100
AcDbEntity
  8
0
  6
Continuous
 62
     7
370
    25
100
AcDbCircle
 10
-719.4161197475
 20
-803.2489151123
 30
0.0
 40
86.30088601176664
100
AcDbArc
 50
296.9778988977
 51
303.0699691803
  0
LWPOLYLINE
  5
23B
330
1F
100
AcDbEntity
  8
0
  6
Continuous
 62
     7
370
    25
100
AcDbPolyline
 90
        3
 70
   128
 43
0.0
 10
-938.749705271
 20
-432.2235835036
 10
-934.2923612458
 20
-429.5212813673
 10
-931.1634077439
 20
-427.835420644
  0
LINE
  5
23C
330
1F
100
AcDbEntity
  8
0
  6
Continuous
 62
     7
370
    25
100
AcDbLine
 10
-944.6258259939
 20
-435.4828444383
 30
0.0
 11
-948.2507733204
 21
-437.6961927829
 31
0.0
  0
LWPOLYLINE
  5
23D
330
1F
100
AcDbEntity
  8
0
  6
Continuous
 62
     7
370
    25
100
AcDbPolyline
 90
        3
 70
   128
 43
0.0
 10
-689.650447915
 20
-885.5955037918
 10
-687.2713626883
 20
-884.3256508084
 10
-685.9468498609
 20
-883.5765258341
  0
LWPOLYLINE
  5
23E
330
1F
100
AcDbEntity
  8
0
  6
Continuous
 62
     1
370
    25
100
AcDbPolyline
 90
       86
 70
   128
 43
0.0
 10
-475.0462054098
 20
-761.6834777613
 10
-477.2202043816
 20
-762.7499514653
 10
-482.297209808
 20
-764.9586233519
 10
-487.5350012722
 20
-766.8546246799
 10
-492.9264435267
 20
-768.4353725978
 10
-498.4641920115
 20
-769.6987137117
 10
-504.1407028589
 20
-770.6429270192
 10
-509.9482431706
 20
-771.266726254
 10
-515.8789015515
 20
-771.5692616377
 10
-521.9245988877
 20
-771.5501210376
 10
-528.0770993517
 20
-771.2093305283
 10
-534.3280216223
 20
-770.5473543558
 10
-540.668850302
 20
-769.5650943056
 10
-547.0909475169
 20
-768.2638884739
 10
-553.5855646843
 20
-766.6455094446
 10
-560.1438544301
 20
-764.712161875
 10
-566.7568826415
 20
-762.4664794921
 10
-573.4156406375
 20
-759.9115215051
 10
-580.1110574412
 20
-757.0507684376
 10
-586.8340121367
 20
-753.8881173866
 10
-593.5753462944
 20
-750.4278767132
 10
-600.3258764467
 20
-746.674760174
 10
-607.076406599
 20
-742.6338804992
 10
-613.8177407567
 20
-738.310742428
 10
-620.5406954522
 20
-733.7112352098
 10
-627.2361122559
 20
-728.8416245811
 10
-633.8948702519
 20
-723.7085442304
 10
-640.5078984633
 20
-718.318986761
 10
-647.0661882091
 20
-712.6802941656
 10
-653.5608053765
 20
-706.800147824
 10
-659.9829025914
 20
-700.6865580398
 10
-666.3237312711
 20
-694.3478531276
 10
-672.5746535417
 20
-687.7926680679
 10
-678.7271540057
 20
-681.0299327444
 10
-684.7728513419
 20
-674.0688597782
 10
-690.7035097228
 20
-666.9189319787
 10
-696.5110500344
 20
-659.5898894252
 10
-702.1875608819
 20
-652.0917161981
 10
-707.7253093667
 20
-644.4346267785
 10
-713.1167516212
 20
-636.6290521327
 10
-718.3545430854
 20
-628.6856255032
 10
-723.4315485118
 20
-620.6151679229
 10
-728.3408516858
 20
-612.4286734744
 10
-733.0757648474
 20
-604.1372943128
 10
-737.6298378015
 20
-595.7523254738
 10
-741.9968667048
 20
-587.2851894868
 10
-746.1709025172
 20
-578.7474208145
 10
-750.1462591058
 20
-570.1506501398
 10
-753.9175209911
 20
-561.5065885218
 10
-757.479550724
 20
-552.8270114424
 10
-760.8274958847
 20
-544.1237427646
 10
-763.9567956927
 20
-535.408638626
 10
-766.86318722
 20
-526.6935712869
 10
-769.542711198
 20
-517.9904129576
 10
-771.9917174115
 20
-509.311019625
 10
-774.2068696709
 20
-500.6672149022
 10
-776.1851503571
 20
-492.0707739209
 10
-777.9238645324
 20
-483.5334072911
 10
-779.4206436115
 20
-475.0667451482
 10
-780.6734485883
 20
-466.6823213091
 10
-781.6805728133
 20
-458.391557561
 10
-782.4406443189
 20
-450.2057481012
 10
-782.9526276881
 20
-442.1360441516
 10
-783.2158254652
 20
-434.1934387682
 10
-783.2298791056
 20
-426.3887518651
 10
-782.9947694646
 20
-418.7326154755
 10
-782.5108168233
 20
-411.2354592674
 10
-781.7786804522
 20
-403.9074963365
 10
-780.7993577134
 20
-396.7587092925
 10
-779.5741827015
 20
-389.7988366607
 10
-778.1048244268
 20
-383.0373596151
 10
-776.3932845409
 20
-376.483489063
 10
-774.4418946106
 20
-370.1461530971
 10
-772.2533129415
 20
-364.0339848333
 10
-769.8305209566
 20
-358.1553106496
 10
-767.1768191346
 20
-352.5181388441
 10
-764.2958225144
 20
-347.130148725
 10
-761.1914557699
 20
-341.9986801498
 10
-757.8679478637
 20
-337.130723526
 10
-754.3298262864
 20
-332.5329102891
 10
-750.5819108887
 20
-328.2115038679
 10
-746.6293073155
 20
-324.1723911528
 10
-742.4774000508
 20
-320.421074476
 10
-738.1318450827
 20
-316.9626641158
 10
-733.5985621979
 20
-313.8018713354
 10
-733.4425962755
 20
-313.7005906372
  0
LWPOLYLINE
  5
23F
330
1F
100
AcDbEntity
  8
0
  6
Continuous
 62
     1
370
    25
100
AcDbPolyline
 90
       86
 70
   128
 43
0.0
 10
-742.9698281717
 20
-319.1901504789
 10
-743.3955041675
 20
-319.4664461122
 10
-747.9222034276
 20
-322.6336147767
 10
-752.2611751008
 20
-326.0980427833
 10
-756.4065132082
 20
-329.8550145357
 10
-760.3525753347
 20
-333.8994162426
 10
-764.0939903092
 20
-338.2257428781
 10
-767.6256655152
 20
-342.8281056751
 10
-770.9427938232
 20
-347.7002401405
 10
-774.0408601334
 20
-352.8355145825
 10
-776.9156475218
 20
-358.2269391369
 10
-779.5632429796
 20
-363.8671752816
 10
-781.9800427399
 20
-369.7485458252
 10
-784.1627571826
 20
-375.8630453571
 10
-786.1084153122
 20
-382.2023511436
 10
-787.8143688016
 20
-388.7578344567
 10
-789.2782955971
 20
-395.5205723192
 10
-790.498203079
 20
-402.4813596495
 10
-791.4724307736
 20
-409.630721792
 10
-792.1996526138
 20
-416.9589274128
 10
-792.6788787435
 20
-424.4560017456
 10
-792.9094568655
 20
-432.1117401692
 10
-792.8910731291
 20
-439.9157220971
 10
-792.6237525572
 20
-447.8573251616
 10
-792.1078590125
 20
-455.9257396722
 10
-791.3440947019
 20
-464.1099833297
 10
-790.3334992212
 20
-472.3989161742
 10
-789.0774481393
 20
-480.7812557483
 10
-787.5776511268
 20
-489.2455924545
 10
-785.836149628
 20
-497.780405085
 10
-783.8553140827
 20
-506.374076504
 10
-781.6378406995
 20
-515.0149094602
 10
-779.186747786
 20
-523.6911425085
 10
-776.5053716404
 20
-532.390966019
 10
-773.5973620101
 20
-541.1025382517
 10
-770.4666771242
 20
-549.8140014751
 10
-767.1175783054
 20
-558.5134981058
 10
-763.55462417
 20
-567.1891868488
 10
-759.7826644228
 20
-575.8292588151
 10
-755.8068332562
 20
-584.4219535955
 10
-751.6325423613
 20
-592.955575268
 10
-747.2654735624
 20
-601.4185083178
 10
-742.7115710825
 20
-609.7992334477
 10
-737.9770334532
 20
-618.0863432577
 10
-733.0683050766
 20
-626.2685577719
 10
-727.9920674546
 20
-634.3347397923
 10
-722.7552300934
 20
-642.2739100584
 10
-717.3649210992
 20
-650.0752621912
 10
-711.8284774758
 20
-657.7281774025
 10
-706.1534351375
 20
-665.2222389486
 10
-700.3475186522
 20
-672.5472463091
 10
-694.4186307263
 20
-679.6932290711
 10
-688.3748414488
 20
-686.6504605005
 10
-682.2243773062
 20
-693.4094707816
 10
-675.9756099852
 20
-699.961059907
 10
-669.6370449776
 20
-706.2963101997
 10
-663.2173100031
 20
-712.4065984519
 10
-656.7251432656
 20
-718.2836076622
 10
-650.1693815593
 20
-723.9193383564
 10
-643.5589482406
 20
-729.3061194756
 10
-636.9028410819
 20
-734.436618818
 10
-630.2101200245
 20
-739.3038530193
 10
-623.4898948464
 20
-743.9011970574
 10
-616.7513127631
 20
-748.2223932706
 10
-610.0035459764
 20
-752.2615598751
 10
-603.2557791896
 20
-756.0131989707
 10
-596.5171971063
 20
-759.4722040246
 10
-589.7969719283
 20
-762.6338668219
 10
-583.1042508708
 20
-765.4938838744
 10
-576.4481437121
 20
-768.048362278
 10
-569.8377103934
 20
-770.2938250118
 10
-563.2819486871
 20
-772.2272156704
 10
-556.7897819496
 20
-773.8459026248
 10
-550.3700469751
 20
-775.1476826038
 10
-544.0314819675
 20
-776.1307836934
 10
-537.7827146466
 20
-776.7938677482
 10
-531.6322505039
 20
-777.1360322134
 10
-525.5884612264
 20
-777.1568113526
 10
-519.6595733006
 20
-776.8561768826
 10
-513.8536568152
 20
-776.2345380109
 10
-508.1786144769
 20
-775.2927408797
 10
-502.6421708535
 20
-774.0320674133
 10
-497.2518618593
 20
-772.4542335738
 10
-492.0150244981
 20
-770.5613870254
 10
-486.9387868761
 20
-768.3561042106
 10
-484.3770697891
 20
-767.0931071734
  0
LWPOLYLINE
  5
240
330
1F
100
AcDbEntity
  8
0
  6
Continuous
 62
     1
370
    25
100
AcDbPolyline
 90
       38
 70
   128
 43
0.0
 10
-636.9222623386
 20
-737.7469353502
 10
-637.3874493911
 20
-737.4092154083
 10
-644.0137735944
 20
-732.4443608817
 10
-650.5991074367
 20
-727.221201075
 10
-657.1344561439
 20
-721.7468701963
 10
-663.6108932158
 20
-716.028845523
 10
-670.0195726185
 20
-710.074937189
 10
-676.3517408668
 20
-703.8932775171
 10
-682.5987489804
 20
-697.4923099106
 10
-688.7520642978
 20
-690.8807773215
 10
-694.8032821304
 20
-684.0677103079
 10
-700.7441372425
 20
-677.0624146999
 10
-706.5665151406
 20
-669.8744588887
 10
-712.2624631568
 20
-662.5136607572
 10
-717.8242013113
 20
-654.9900742703
 10
-723.2441329389
 20
-647.3139757422
 10
-728.5148550647
 20
-639.4958498002
 10
-733.6291685165
 20
-631.5463750638
 10
-738.5800877571
 20
-623.4764095593
 10
-743.3608504266
 20
-615.296975889
 10
-747.964926578
 20
-607.0192461753
 10
-752.3860275972
 20
-598.6545268013
 10
-756.6181147919
 20
-590.2142429676
 10
-760.6554076403
 20
-581.7099230866
 10
-764.4923916857
 20
-573.1531830363
 10
-768.1238260696
 20
-564.5557102944
 10
-771.5447506895
 20
-555.9292479744
 10
-774.7504929737
 20
-547.2855787863
 10
-777.7366742639
 20
-538.6365089425
 10
-780.4992157957
 20
-529.9938520319
 10
-783.0343442696
 20
-521.3694128844
 10
-785.3385970051
 20
-512.7749714465
 10
-787.4088266702
 20
-504.2222666912
 10
-789.24220558
 20
-495.7229805847
 10
-790.8362295596
 20
-487.2887221293
 10
-792.1887213639
 20
-478.9310115075
 10
-793.2978336518
 20
-470.6612643468
 10
-793.9379609111
 20
-464.8368542116
  0
LWPOLYLINE
  5
241
330
1F
100
AcDbEntity
  8
0
  6
Continuous
 62
     1
370
    25
100
AcDbPolyline
 90
       40
 70
   128
 43
0.0
 10
-794.7929678458
 20
-456.8291136187
 10
-794.7748955758
 20
-457.1205984638
 10
-794.150151015
 20
-465.1746260106
 10
-793.2767322387
 20
-473.3398549867
 10
-792.1558608022
 20
-481.6048655811
 10
-790.7891043456
 20
-489.9580984292
 10
-789.1783744012
 20
-498.3878707794
 10
-787.3259237207
 20
-506.8823928329
 10
-785.2343431237
 20
-515.4297842325
 10
-782.9065578748
 20
-524.0180906785
 10
-780.3458235923
 20
-532.6353006476
 10
-777.5557216945
 20
-541.2693621926
 10
-774.5401543913
 20
-549.9081997977
 10
-771.3033392262
 20
-558.5397312673
 10
-767.8498031779
 20
-567.1518846241
 10
-764.1843763288
 20
-575.7326149931
 10
-760.3121851099
 20
-584.2699214467
 10
-756.2386451306
 20
-592.7518637901
 10
-751.9694536051
 20
-601.1665792598
 10
-747.5105813836
 20
-609.5022991155
 10
-742.8682646021
 20
-617.7473650991
 10
-738.0489959605
 20
-625.8902457403
 10
-733.0595156417
 20
-633.9195524842
 10
-727.9068018852
 20
-641.8240556193
 10
-722.5980612269
 20
-649.5926999833
 10
-717.1407184208
 20
-657.2146204245
 10
-711.5424060543
 20
-664.679156998
 10
-705.8109538733
 20
-671.9758698744
 10
-699.9543778322
 20
-679.094553941
 10
-693.9808688819
 20
-686.0252530744
 10
-687.8987815149
 20
-692.7582740652
 10
-681.7166220804
 20
-699.2842001746
 10
-675.4430368874
 20
-705.593904305
 10
-669.0868001119
 20
-711.6785617646
 10
-662.656801526
 20
-717.5296626097
 10
-656.162034064
 20
-723.1390235467
 10
-649.6115812455
 20
-728.4987993772
 10
-643.014604471
 20
-733.6014939699
 10
-636.3803302093
 20
-738.4399707451
 10
-634.5156897868
 20
-739.7475934934
  0
LWPOLYLINE
  5
242
330
1F
100
AcDbEntity
  8
0
  6
Continuous
 62
     1
370
    25
100
AcDbPolyline
 90
       10
 70
   128
 43
0.0
 10
-797.6183617703
 20
-444.6566659694
 10
-797.4943965403
 20
-437.0739985351
 10
-797.1226742269
 20
-429.645063355
 10
-796.5037147172
 20
-422.3802504665
 10
-795.6383836823
 20
-415.2897203675
 10
-794.5278913657
 20
-408.3833898053
 10
-793.1737908913
 20
-401.6709179079
 10
-791.5779760912
 20
-395.161692674
 10
-789.7426788567
 20
-388.8648178438
 10
-788.529143654
 20
-385.1967478032
  0
LWPOLYLINE
  5
243
330
1F
100
AcDbEntity
  8
0
  6
Continuous
 62
     1
370
    25
100
AcDbPolyline
 90
       52
 70
   128
 43
0.0
 10
-564.3359296404
 20
-773.5479126995
 10
-568.0949497051
 20
-772.76994499
 10
-574.4654073625
 20
-771.2116915704
 10
-580.9000341448
 20
-769.3398486273
 10
-587.3898306446
 20
-767.1570341025
 10
-593.9257202948
 20
-764.6663008593
 10
-600.4985620625
 20
-761.8711324135
 10
-607.0991632343
 20
-758.7754380608
 10
-613.7182922726
 20
-755.3835474097
 10
-620.3466917269
 20
-751.7002043261
 10
-626.9750911812
 20
-747.7305602982
 10
-633.5942202194
 20
-743.4801672323
 10
-640.1948213912
 20
-738.9549696872
 10
-646.767663159
 20
-734.1612965611
 10
-653.3035528091
 20
-729.1058522391
 10
-659.7933493089
 20
-723.7957072174
 10
-666.2279760912
 20
-718.2382882138
 10
-672.5984337486
 20
-712.4413677815
 10
-678.89581262
 20
-706.4130534377
 10
-685.1113052517
 20
-700.1617763253
 10
-691.2362187151
 20
-693.6962794204
 10
-697.2619867649
 20
-687.0256053052
 10
-703.1801818198
 20
-680.1590835206
 10
-708.9825267486
 20
-673.1063175182
 10
-714.6609064474
 20
-665.877171229
 10
-720.2073791888
 20
-658.4817552677
 10
-725.614187729
 20
-650.9304127924
 10
-730.8737701574
 20
-643.2337050381
 10
-735.9787704725
 20
-635.4023965468
 10
-740.9220488696
 20
-627.4474401115
 10
-745.6966917269
 20
-619.379961458
 10
-750.2960212746
 20
-611.2112436848
 10
-754.7136049346
 20
-602.9527114823
 10
-758.9432643165
 20
-594.6159151545
 10
-762.9790838594
 20
-586.212514465
 10
-766.8154191045
 20
-577.7542623294
 10
-770.4469045903
 20
-569.2529883782
 10
-773.8684613558
 20
-560.7205824118
 10
-777.0753040446
 20
-552.1689777714
 10
-780.0629475971
 20
-543.6101346493
 10
-782.8272135237
 20
-535.0560233617
 10
-785.3642357486
 20
-526.5186076065
 10
-787.6704660168
 20
-518.0098277318
 10
-789.7426788567
 20
-509.5415840355
 10
-791.5779760912
 20
-501.1257201223
 10
-793.1737908913
 20
-492.7740063387
 10
-794.5278913656
 20
-484.4981233118
 10
-795.6383836823
 20
-476.3096456121
 10
-796.5037147172
 20
-468.2200255663
 10
-797.1226742269
 20
-460.2405772395
 10
-797.4943965403
 20
-452.3824606116
 10
-797.6183617703
 20
-444.6566659694
  0
LWPOLYLINE
  5
244
330
1F
100
AcDbEntity
  8
0
  6
Continuous
 62
     1
370
    25
100
AcDbPolyline
 90
       62
 70
   128
 43
0.0
 10
-810.609739799
 20
-452.1564288684
 10
-810.485774569
 20
-459.8822235106
 10
-810.1140522555
 20
-467.7403401385
 10
-809.4950927459
 20
-475.7197884653
 10
-808.6297617109
 20
-483.8094085111
 10
-807.5192693943
 20
-491.9978862108
 10
-806.16516892
 20
-500.2737692377
 10
-804.5693541199
 20
-508.6254830213
 10
-802.7340568853
 20
-517.0413469345
 10
-800.6618440455
 20
-525.5095906308
 10
-798.3556137773
 20
-534.0183705055
 10
-795.8185915524
 20
-542.5557862607
 10
-793.0543256257
 20
-551.1098975483
 10
-790.0666820732
 20
-559.6687406704
 10
-786.8598393844
 20
-568.2203453108
 10
-783.4382826189
 20
-576.7527512772
 10
-779.8067971332
 20
-585.2540252284
 10
-775.970461888
 20
-593.712277364
 10
-771.9346423452
 20
-602.1156780535
 10
-767.7049829632
 20
-610.4524743813
 10
-763.2873993033
 20
-618.7110065838
 10
-758.6880697555
 20
-626.8797243571
 10
-753.9134268982
 20
-634.9472030105
 10
-748.9701485011
 20
-642.9021594458
 10
-743.8651481861
 20
-650.7334679371
 10
-738.6055657577
 20
-658.4301756914
 10
-733.1987572174
 20
-665.9815181667
 10
-727.6522844761
 20
-673.376934128
 10
-721.9739047772
 20
-680.6060804172
 10
-716.1715598484
 20
-687.6588464196
 10
-710.2533647936
 20
-694.5253682042
 10
-704.2275967437
 20
-701.1960423194
 10
-698.1026832803
 20
-707.6615392243
 10
-691.8871906487
 20
-713.9128163367
 10
-685.5898117773
 20
-719.9411306805
 10
-679.2193541199
 20
-725.7380511128
 10
-672.7847273376
 20
-731.2954701164
 10
-666.2949308377
 20
-736.6056151381
 10
-659.7590411876
 20
-741.6610594601
 10
-653.1861994199
 20
-746.4547325862
 10
-646.5855982481
 20
-750.9799301313
 10
-639.9664692098
 20
-755.2303231972
 10
-633.3380697555
 20
-759.1999672251
 10
-626.7096703012
 20
-762.8833103087
 10
-620.0905412629
 20
-766.2752009598
 10
-613.4899400911
 20
-769.3708953125
 10
-606.9170983234
 20
-772.1660637583
 10
-600.3812086733
 20
-774.6567970015
 10
-593.8914121734
 20
-776.8396115263
 10
-587.4567853911
 20
-778.7114544694
 10
-581.0863277337
 20
-780.269707889
 10
-574.7889488623
 20
-781.5121924268
 10
-568.5734562307
 20
-782.437170356
 10
-562.4485427673
 20
-783.0433480112
 10
-556.4227747174
 20
-783.3298775981
 10
-550.5045796626
 20
-783.2963583792
 10
-544.7022347338
 20
-782.9428372342
 10
-539.0238550349
 20
-782.2698085944
 10
-533.4773822936
 20
-781.2782137511
 10
-528.0705737534
 20
-779.9694395395
 10
-522.8109913249
 20
-778.3453163985
 10
-520.4986860031
 20
-777.5138610922
  0
LWPOLYLINE
  5
245
330
1F
100
AcDbEntity
  8
0
  6
Continuous
 62
     1
370
    25
100
AcDbPolyline
 90
       20
 70
   128
 43
0.0
 10
-770.015410921
 20
-345.2277987789
 10
-771.9346423452
 20
-346.8504967308
 10
-775.970461888
 20
-350.5942393598
 10
-779.8067971332
 20
-354.6231531024
 10
-783.4382826189
 20
-358.9316031585
 10
-786.8598393844
 20
-363.513563771
 10
-790.0666820732
 20
-368.3626266538
 10
-793.0543256257
 20
-373.472009954
 10
-795.8185915524
 20
-378.8345677368
 10
-798.3556137773
 20
-384.4427999805
 10
-800.6618440455
 20
-390.2888630652
 10
-802.7340568853
 20
-396.3645807428
 10
-804.5693541199
 20
-402.661455573
 10
-806.16516892
 20
-409.1706808069
 10
-807.5192693943
 20
-415.8831527043
 10
-808.6297617109
 20
-422.7894832665
 10
-809.4950927459
 20
-429.8800133655
 10
-810.1140522555
 20
-437.144826254
 10
-810.485774569
 20
-444.5737614341
 10
-810.609739799
 20
-452.1564288684
  0
LWPOLYLINE
  5
246
330
1F
100
AcDbEntity
  8
0
  6
Continuous
 62
     1
370
    25
100
AcDbPolyline
 90
       24
 70
   128
 43
0.0
 10
-821.6500023893
 20
-454.9575035677
 10
-821.5253615554
 20
-447.2876911507
 10
-821.1516113187
 20
-439.7723863477
 10
-820.5292682356
 20
-432.4219759859
 10
-819.6591924401
 20
-425.2466189934
 10
-818.5425864553
 20
-418.2562323588
 10
-817.1809935311
 20
-411.4604774251
 10
-815.5762955112
 20
-404.8687465366
 10
-813.7307102328
 20
-398.4901500583
 10
-811.6467884605
 20
-392.3335037841
 10
-809.3274103618
 20
-386.4073167527
 10
-806.7757815257
 20
-380.7197794877
 10
-803.9954285327
 20
-375.2787526769
 10
-800.9901940806
 20
-370.0917563087
 10
-797.7642316738
 20
-365.1659592785
 10
-794.3219998824
 20
-360.5081694808
 10
-790.6682561803
 20
-356.1248243999
 10
-786.8080503698
 20
-352.021982213
 10
-782.7467176026
 20
-348.2053134168
 10
-778.4898710056
 20
-344.6800929909
 10
-774.0433939237
 20
-341.4511931069
 10
-769.4134317882
 20
-338.5230763949
 10
-764.6063836229
 20
-335.8997897754
 10
-761.1732963469
 20
-334.2619652247
  0
LWPOLYLINE
  5
247
330
1F
100
AcDbEntity
  8
0
  6
Continuous
 62
     1
370
    25
100
AcDbPolyline
 90
       66
 70
   128
 43
0.0
 10
-506.4951193305
 20
-775.2892751773
 10
-510.8175771444
 20
-778.2115798913
 10
-515.5368976809
 20
-780.987761215
 10
-520.4300123882
 20
-783.4572466475
 10
-525.4901585416
 20
-785.6166231378
 10
-530.7103425642
 20
-787.4629062333
 10
-536.0833496923
 20
-788.9935442049
 10
-541.6017539467
 20
-790.2064215731
 10
-547.2579283965
 20
-791.0998620325
 10
-553.0440557001
 20
-791.6726307679
 10
-558.9521389092
 20
-791.9239361614
 10
-564.9740125214
 20
-791.8534308865
 10
-571.101353766
 20
-791.4612123876
 10
-577.3256941062
 20
-790.7478227462
 10
-583.6384309441
 20
-789.7142479307
 10
-590.0308395096
 20
-788.3619164345
 10
-596.4940849192
 20
-786.6926973015
 10
-603.0192343866
 20
-784.7088975424
 10
-609.5972695684
 20
-782.413258947
 10
-616.2190990285
 20
-779.8089542944
 10
-622.875570803
 20
-776.8995829675
 10
-629.5574850494
 20
-773.6891659794
 10
-636.2556067613
 20
-770.182140415
 10
-642.9606785322
 20
-766.383353299
 10
-649.6634333498
 20
-762.2980548967
 10
-656.3546074044
 20
-757.931891458
 10
-663.0249528916
 20
-753.2908974133
 10
-669.6652507941
 20
-748.3814870339
 10
-676.2663236231
 20
-743.2104455662
 10
-682.8190481023
 20
-737.7849198547
 10
-689.3143677773
 20
-732.1124084638
 10
-695.743305532
 20
-726.2007513143
 10
-702.0969759966
 20
-720.058118848
 10
-708.3665978268
 20
-713.6930007354
 10
-714.5435058417
 20
-707.1141941421
 10
-720.6191629989
 20
-700.3307915704
 10
-726.5851721937
 20
-693.3521682927
 10
-732.433287865
 20
-686.1879693939
 10
-738.1554273911
 20
-678.8480964411
 10
-743.7436822605
 20
-671.3426937989
 10
-749.1903290024
 20
-663.6821346086
 10
-754.4878398614
 20
-655.8770064519
 10
-759.6288932009
 20
-647.9380967178
 10
-764.6063836229
 20
-639.8763776935
 10
-769.4134317882
 20
-631.7029913995
 10
-774.0433939237
 20
-623.4292341909
 10
-778.4898710056
 20
-615.0665411441
 10
-782.7467176026
 20
-606.6264702529
 10
-786.8080503698
 20
-598.1206864543
 10
-790.6682561803
 20
-589.5609455063
 10
-794.3219998824
 20
-580.9590777407
 10
-797.7642316738
 20
-572.3269717124
 10
-800.9901940806
 20
-563.676557768
 10
-803.9954285327
 20
-555.0197915576
 10
-806.7757815257
 20
-546.3686375105
 10
-809.3274103618
 20
-537.7350522997
 10
-811.6467884605
 20
-529.1309683162
 10
-813.7307102328
 20
-520.5682771778
 10
-815.5762955112
 20
-512.0588132938
 10
-817.1809935311
 20
-503.6143375084
 10
-818.5425864553
 20
-495.2465208466
 10
-819.6591924401
 20
-486.9669283835
 10
-820.5292682356
 20
-478.7870032604
 10
-821.1516113187
 20
-470.7180508694
 10
-821.5253615554
 20
-462.7712232284
 10
-821.6500023893
 20
-454.9575035677
  0
LWPOLYLINE
  5
248
330
1F
100
AcDbEntity
  8
0
  6
Continuous
 62
     1
370
    25
100
AcDbPolyline
 90
       85
 70
   128
 43
0.0
 10
-765.7537660279
 20
-339.6920352057
 10
-767.5083213763
 20
-340.8315841557
 10
-771.9540679575
 20
-344.0098162993
 10
-776.2106922082
 20
-347.4851675114
 10
-780.2722408546
 20
-351.2527771991
 10
-784.1330334537
 20
-355.3073760196
 10
-787.7876703379
 20
-359.6432932497
 10
-791.2310401671
 20
-364.2544647173
 10
-794.4583270772
 20
-369.1344412819
 10
-797.4650174155
 20
-374.2763978551
 10
-800.2469060539
 20
-379.6731429458
 10
-802.8001022695
 20
-385.3171287178
 10
-805.1210351865
 20
-391.2004615469
 10
-807.2064587704
 20
-397.3149130599
 10
-809.0534563677
 20
-403.6519316436
 10
-810.6594447853
 20
-410.2026544044
 10
-812.0221779031
 20
-416.9579195643
 10
-813.1397498157
 20
-423.9082792741
 10
-814.0105974977
 20
-431.0440128273
 10
-814.6335029899
 20
-438.3551402552
 10
-815.0075951025
 20
-445.8314362851
 10
-815.132350634
 20
-453.4624446409
 10
-815.0075951025
 20
-461.2374926674
 10
-814.6335029899
 20
-469.145706257
 10
-814.0105974977
 20
-477.1760250577
 10
-813.1397498157
 20
-485.3172179427
 10
-812.0221779031
 20
-493.5578987175
 10
-810.6594447853
 20
-501.886542045
 10
-809.0534563677
 20
-510.2914995643
 10
-807.2064587704
 20
-518.7610161824
 10
-805.1210351865
 20
-527.2832465143
 10
-802.8001022695
 20
-535.8462714505
 10
-800.2469060539
 20
-544.4381148261
 10
-797.4650174155
 20
-553.0467601714
 10
-794.4583270772
 20
-561.6601675175
 10
-791.2310401671
 20
-570.2662902352
 10
-787.7876703379
 20
-578.8530918838
 10
-784.1330334537
 20
-587.4085630447
 10
-780.2722408546
 20
-595.9207381179
 10
-776.2106922082
 20
-604.3777120569
 10
-771.9540679575
 20
-612.7676570188
 10
-767.5083213763
 20
-621.0788389071
 10
-762.8796702434
 20
-629.2996337823
 10
-758.0745881458
 20
-637.4185441195
 10
-753.0997954254
 20
-645.4242148883
 10
-747.9622497795
 20
-653.3054494344
 10
-742.6691365305
 20
-661.0512251385
 10
-737.2278585756
 20
-668.650708833
 10
-731.6460260343
 20
-676.0932719528
 10
-725.931445604
 20
-683.3685054002
 10
-720.0921096422
 20
-690.4662341036
 10
-714.1361849882
 20
-697.3765312474
 10
-708.0720015412
 20
-704.0897321564
 10
-701.9080406101
 20
-710.596447812
 10
-695.6529230517
 20
-716.887577984
 10
-689.3153972134
 20
-722.954323958
 10
-682.9043266983
 20
-728.7882008411
 10
-676.428677968
 20
-734.3810494291
 10
-669.897507803
 20
-739.7250476175
 10
-663.3199506352
 20
-744.8127213415
 10
-656.7052057732
 20
-749.6369550294
 10
-650.0625245357
 20
-754.1910015543
 10
-643.4011973131
 20
-758.4684916702
 10
-636.7305405739
 20
-762.4634429204
 10
-630.0598838347
 20
-766.1702680043
 10
-623.3985566122
 20
-769.583782592
 10
-616.7558753747
 20
-772.6992125745
 10
-610.1411305127
 20
-775.5122007415
 10
-603.5635733449
 20
-778.0188128744
 10
-597.0324031799
 20
-780.2155432497
 10
-590.5567544496
 20
-782.0993195412
 10
-584.1456839345
 20
-783.6675071175
 10
-577.8081580962
 20
-784.9179127264
 10
-571.5530405378
 20
-785.8487875627
 10
-565.3890796067
 20
-786.4588297136
 10
-559.3248961597
 20
-786.7471859802
 10
-553.3689715057
 20
-786.7134530701
 10
-547.5296355439
 20
-786.3576781617
 10
-541.8150551136
 20
-785.6803588386
 10
-536.2332225722
 20
-784.6824423929
 10
-530.7919446174
 20
-783.3653245011
 10
-525.4988313683
 20
-781.7308472717
 10
-520.3612857225
 20
-779.7812966689
 10
-515.3864930021
 20
-777.5193993154
 10
-513.8416544208
 20
-776.7361511228
  0
LWPOLYLINE
  5
249
330
1F
100
AcDbEntity
  8
0
  6
Continuous
 62
     1
370
    25
100
AcDbPolyline
 90
       23
 70
   128
 43
0.0
 10
-847.813249862
 20
-467.6737788579
 10
-847.6886587198
 20
-459.9612227069
 10
-847.3150554696
 20
-452.4030508509
 10
-846.6929504085
 20
-445.0095868433
 10
-845.8231932573
 20
-437.7909292667
 10
-844.7069719996
 20
-430.7569379391
 10
-843.3458112593
 20
-423.9172204465
 10
-841.7415702183
 20
-417.2811190203
 10
-839.8964400768
 20
-410.8576977767
 10
-837.8129410608
 20
-404.6557303366
 10
-835.4939189793
 20
-398.6836878416
 10
-832.9425413374
 20
-392.9497273831
 10
-830.1622930102
 20
-387.4616808617
 10
-827.1569714824
 20
-382.2270442886
 10
-823.9306816617
 20
-377.2529675477
 10
-820.487830272
 20
-372.5462446297
 10
-816.8331198341
 20
-368.1133043518
 10
-812.9715422428
 20
-363.9602015772
 10
-808.9083719488
 20
-360.0926089448
 10
-804.6491587537
 20
-356.5158091208
 10
-800.1997202307
 20
-353.2346875837
 10
-795.5661337774
 20
-350.2537259507
 10
-794.3696612088
 20
-349.5500753273
  0
LWPOLYLINE
  5
24A
330
1F
100
AcDbEntity
  8
0
  6
Continuous
 62
     1
370
    25
100
AcDbPolyline
 90
       65
 70
   128
 43
0.0
 10
-536.3898413406
 20
-796.4308340752
 10
-540.0046723162
 20
-798.4038547091
 10
-544.9873249854
 20
-800.7726971725
 10
-550.1344191577
 20
-802.8304164514
 10
-555.4389245217
 20
-804.574201949
 10
-560.8935957612
 20
-806.0016718639
 10
-566.4909824512
 20
-807.110876444
 10
-572.2234392349
 20
-807.9003006492
 10
-578.0831362658
 20
-808.3688662211
 10
-584.0620699027
 20
-808.5159331553
 10
-590.1520736413
 20
-808.3413005763
 10
-596.3448292692
 20
-807.845207011
 10
-602.6318782269
 20
-807.0283300637
 10
-609.004633162
 20
-805.8917854899
 10
-615.4543896576
 20
-804.4371256728
 10
-621.9723381223
 20
-802.6663375029
 10
-628.5495758224
 20
-800.5818396636
 10
-635.1771190425
 20
-798.1864793284
 10
-641.8459153556
 20
-795.4835282713
 10
-648.5468559882
 20
-792.4766783983
 10
-655.2707882614
 20
-789.1700367047
 10
-662.0085280924
 20
-785.5681196653
 10
-668.7508725393
 20
-781.6758470655
 10
-675.4886123704
 20
-777.4985352814
 10
-682.2125446435
 20
-773.0418900186
 10
-688.9134852761
 20
-768.3119985184
 10
-695.5822815893
 20
-763.3153212436
 10
-702.2098248093
 20
-758.0586830543
 10
-708.7870625094
 20
-752.5492638861
 10
-715.3050109741
 20
-746.7945889427
 10
-721.7547674698
 20
-740.802518418
 10
-728.1275224048
 20
-734.5812367595
 10
-734.4145713626
 20
-728.1392414897
 10
-740.6073269904
 20
-721.4853315992
 10
-746.697330729
 20
-714.6285955285
 10
-752.6762643659
 20
-707.5783987543
 10
-758.5359613968
 20
-700.3443709974
 10
-764.2684181805
 20
-692.9363930696
 10
-769.8658048705
 20
-685.3645833777
 10
-775.32047611
 20
-677.6392841028
 10
-780.624981474
 20
-669.7710470745
 10
-785.7720756464
 20
-661.7706193583
 10
-790.7547283156
 20
-653.6489285759
 10
-795.5661337774
 20
-645.4170679802
 10
-800.1997202307
 20
-637.0862813024
 10
-804.6491587537
 20
-628.6679473952
 10
-808.9083719488
 20
-620.17356469
 10
-812.9715422428
 20
-611.6147354918
 10
-816.8331198341
 20
-603.0031501319
 10
-820.487830272
 20
-594.3505709999
 10
-823.9306816617
 20
-585.6688164782
 10
-827.1569714824
 20
-576.9697447991
 10
-830.1622930102
 20
-568.2652378483
 10
-832.9425413374
 20
-559.5671849351
 10
-835.4939189793
 20
-550.8874665536
 10
-837.8129410608
 20
-542.237938155
 10
-839.8964400768
 20
-533.6304139548
 10
-841.7415702183
 20
-525.0766507956
 10
-843.3458112593
 20
-516.588332089
 10
-844.7069719996
 20
-508.1770518573
 10
-845.8231932573
 20
-499.8542988975
 10
-846.6929504085
 20
-491.6314410891
 10
-847.3150554696
 20
-483.5197098668
 10
-847.6886587198
 20
-475.5301848797
 10
-847.813249862
 20
-467.6737788579
  0
LWPOLYLINE
  5
24B
330
1F
100
AcDbEntity
  8
0
  6
Continuous
 62
     1
370
    25
100
AcDbPolyline
 90
       23
 70
   128
 43
0.0
 10
-932.6660636044
 20
-516.6582655672
 10
-932.5414724621
 20
-508.9457094163
 10
-932.1678692119
 20
-501.3875375602
 10
-931.5457641509
 20
-493.9940735527
 10
-930.6760069997
 20
-486.7754159761
 10
-929.5597857419
 20
-479.7414246485
 10
-928.1986250016
 20
-472.9017071558
 10
-926.5943839606
 20
-466.2656057296
 10
-924.7492538192
 20
-459.8421844861
 10
-922.6657548032
 20
-453.640217046
 10
-920.3467327217
 20
-447.6681745509
 10
-917.7953550798
 20
-441.9342140925
 10
-915.0151067526
 20
-436.446167571
 10
-912.0097852247
 20
-431.2115309979
 10
-908.7834954041
 20
-426.2374542571
 10
-905.3406440143
 20
-421.5307313391
 10
-901.6859335764
 20
-417.0977910611
 10
-897.8243559852
 20
-412.9446882865
 10
-893.7611856911
 20
-409.0770956541
 10
-889.5019724961
 20
-405.5002958302
 10
-885.052533973
 20
-402.219174293
 10
-880.4189475197
 20
-399.2382126601
 10
-879.2220305683
 20
-398.5343054982
  0
LWPOLYLINE
  5
24C
330
1F
100
AcDbEntity
  8
0
  6
Continuous
 62
     1
370
    25
100
AcDbPolyline
 90
       65
 70
   128
 43
0.0
 10
-621.2429975482
 20
-845.4155184866
 10
-624.8574860586
 20
-847.3883414185
 10
-629.8401387277
 20
-849.7571838818
 10
-634.9872329001
 20
-851.8149031608
 10
-640.2917382641
 20
-853.5586886583
 10
-645.7464095036
 20
-854.9861585732
 10
-651.3437961936
 20
-856.0953631533
 10
-657.0762529773
 20
-856.8847873586
 10
-662.9359500082
 20
-857.3533529304
 10
-668.9148836451
 20
-857.5004198647
 10
-675.0048873837
 20
-857.3257872857
 10
-681.1976430115
 20
-856.8296937204
 10
-687.4846919693
 20
-856.012816773
 10
-693.8574469043
 20
-854.8762721993
 10
-700.3072034
 20
-853.4216123822
 10
-706.8251518647
 20
-851.6508242122
 10
-713.4023895648
 20
-849.566326373
 10
-720.0299327849
 20
-847.1709660377
 10
-726.698729098
 20
-844.4680149806
 10
-733.3996697306
 20
-841.4611651077
 10
-740.1236020037
 20
-838.1545234141
 10
-746.8613418348
 20
-834.5526063746
 10
-753.6036862817
 20
-830.6603337748
 10
-760.3414261128
 20
-826.4830219908
 10
-767.0653583859
 20
-822.026376728
 10
-773.7662990185
 20
-817.2964852278
 10
-780.4350953316
 20
-812.299807953
 10
-787.0626385517
 20
-807.0431697637
 10
-793.6398762518
 20
-801.5337505954
 10
-800.1578247165
 20
-795.7790756521
 10
-806.6075812121
 20
-789.7870051274
 10
-812.9803361472
 20
-783.5657234689
 10
-819.2673851049
 20
-777.1237281991
 10
-825.4601407328
 20
-770.4698183085
 10
-831.5501444714
 20
-763.6130822378
 10
-837.5290781083
 20
-756.5628854637
 10
-843.3887751392
 20
-749.3288577068
 10
-849.1212319229
 20
-741.920879779
 10
-854.7186186129
 20
-734.349070087
 10
-860.1732898524
 20
-726.6237708121
 10
-865.4777952164
 20
-718.7555337839
 10
-870.6248893887
 20
-710.7551060676
 10
-875.6075420579
 20
-702.6334152853
 10
-880.4189475197
 20
-694.4015546896
 10
-885.0525339731
 20
-686.0707680118
 10
-889.5019724961
 20
-677.6524341046
 10
-893.7611856911
 20
-669.1580513993
 10
-897.8243559852
 20
-660.5992222012
 10
-901.6859335764
 20
-651.9876368412
 10
-905.3406440143
 20
-643.3350577092
 10
-908.7834954041
 20
-634.6533031875
 10
-912.0097852247
 20
-625.9542315085
 10
-915.0151067526
 20
-617.2497245576
 10
-917.7953550798
 20
-608.5516716445
 10
-920.3467327217
 20
-599.871953263
 10
-922.6657548032
 20
-591.2224248644
 10
-924.7492538192
 20
-582.6149006642
 10
-926.5943839606
 20
-574.061137505
 10
-928.1986250016
 20
-565.5728187983
 10
-929.5597857419
 20
-557.1615385666
 10
-930.6760069997
 20
-548.8387856069
 10
-931.5457641509
 20
-540.6159277985
 10
-932.1678692119
 20
-532.5041965762
 10
-932.5414724621
 20
-524.5146715891
 10
-932.6660636044
 20
-516.6582655672
  0
LWPOLYLINE
  5
24D
330
1F
100
AcDbEntity
  8
0
  6
Continuous
 62
     1
370
    25
100
AcDbPolyline
 90
       80
 70
   128
 43
0.0
 10
-916.7029882474
 20
-425.8265586806
 10
-917.8458633007
 20
-426.8820203705
 10
-921.8073170344
 20
-430.8424601317
 10
-925.5649410186
 20
-435.0862869977
 10
-929.113541879
 20
-439.6076356183
 10
-932.4482151301
 20
-444.400257083
 10
-935.5643519537
 20
-449.457527558
 10
-938.4576455684
 20
-454.7724574407
 10
-941.1240971823
 20
-460.3377010201
 10
-943.5600215194
 20
-466.1455666291
 10
-945.7620519132
 20
-472.188027275
 10
-947.7271449598
 20
-478.456731734
 10
-949.4525847238
 20
-484.9430160928
 10
-950.9359864923
 20
-491.637915723
 10
-952.1753000707
 20
-498.5321776713
 10
-953.1688126161
 20
-505.6162734478
 10
-953.9151510049
 20
-512.880412195
 10
-954.4132837303
 20
-520.3145542199
 10
-954.6625223281
 20
-527.9084248697
 10
-954.6625223281
 20
-535.6515287324
 10
-954.4132837303
 20
-543.533164142
 10
-953.9151510049
 20
-551.5424379696
 10
-953.1688126161
 20
-559.6682806786
 10
-952.1753000707
 20
-567.8994616236
 10
-950.9359864923
 20
-576.2246045724
 10
-949.4525847238
 20
-584.6322034287
 10
-947.7271449598
 20
-593.1106381348
 10
-945.7620519132
 20
-601.6481907316
 10
-943.5600215194
 20
-610.2330615536
 10
-941.1240971823
 20
-618.8533855373
 10
-938.4576455684
 20
-627.4972486198
 10
-935.5643519537
 20
-636.152704205
 10
-932.4482151301
 20
-644.8077896749
 10
-929.113541879
 20
-653.450542923
 10
-925.5649410186
 20
-662.0690188872
 10
-921.8073170344
 20
-670.6513060586
 10
-917.8458633007
 20
-679.1855429447
 10
-913.6860549028
 20
-687.6599344625
 10
-909.33364107
 20
-696.0627682409
 10
-904.7946372297
 20
-704.382430808
 10
-900.0753166932
 20
-712.607423642
 10
-895.1822019859
 20
-720.7263790631
 10
-890.1220558325
 20
-728.7280759449
 10
-884.9018718099
 20
-736.6014552226
 10
-879.5288646818
 20
-744.3356351781
 10
-874.0104604274
 20
-751.9199264791
 10
-868.3542859776
 20
-759.3438469531
 10
-862.568158674
 20
-766.5971360743
 10
-856.6600754649
 20
-773.669769145
 10
-850.6382018527
 20
-780.5519711502
 10
-844.5108606081
 20
-787.2342302678
 10
-838.2865202679
 20
-793.7073110149
 10
-831.97378343
 20
-799.9622670117
 10
-825.5813748645
 20
-805.9904533465
 10
-819.1181294549
 20
-811.7835385238
 10
-812.5929799875
 20
-817.3335159788
 10
-806.0149448057
 20
-822.6327151437
 10
-799.3931153456
 20
-827.6738120486
 10
-792.7366435711
 20
-832.4498394444
 10
-786.0547293247
 20
-836.9541964316
 10
-779.3566076128
 20
-841.1806575839
 10
-772.6515358419
 20
-845.1233815517
 10
-765.9487810243
 20
-848.7769191362
 10
-759.2576069697
 20
-852.1362208197
 10
-752.5872614825
 20
-855.1966437453
 10
-745.94696358
 20
-857.9539581333
 10
-739.345890751
 20
-860.4043531272
 10
-732.7931662718
 20
-862.5444420607
 10
-726.2978465968
 20
-864.3712671386
 10
-719.8689088421
 20
-865.8823035243
 10
-713.5152383775
 20
-867.0754628296
 10
-707.2456165473
 20
-867.9490960011
 10
-701.0687085324
 20
-868.5019955991
 10
-694.9930513752
 20
-868.7333974668
 10
-689.0270421804
 20
-868.6429817858
 10
-683.1789265091
 20
-868.2308735188
 10
-677.456786983
 20
-867.4976422366
 10
-671.8685321136
 20
-866.4443013305
 10
-666.4218853717
 20
-865.0723066126
 10
-663.5348354589
 20
-864.1972033856
  0
ARC
  5
24E
330
1F
100
AcDbEntity
  8
0
  6
Continuous
 62
     1
370
    25
100
AcDbCircle
 10
-752.5822506626
 20
-534.5790427812
 30
0.0
 40
204.703416803649
100
AcDbArc
 50
170.0102082342
 51
180.2646443382
  0
LWPOLYLINE
  5
24F
330
1F
100
AcDbEntity
  8
0
  6
Continuous
 62
     1
370
    25
100
AcDbPolyline
 90
       48
 70
   128
 43
0.0
 10
-749.4875347414
 20
-858.6788719165
 10
-752.2922637389
 20
-857.574303212
 10
-758.9070086009
 20
-854.7613150451
 10
-765.5496898384
 20
-851.6458850625
 10
-772.211017061
 20
-848.2323704748
 10
-778.8816738002
 20
-844.5255453909
 10
-785.5523305394
 20
-840.5305941407
 10
-792.2136577619
 20
-836.2531040248
 10
-798.8563389994
 20
-831.6990575
 10
-805.4710838614
 20
-826.874823812
 10
-812.0486410292
 20
-821.787150088
 10
-818.5798111942
 20
-816.4431518996
 10
-825.0554599245
 20
-810.8503033116
 10
-831.4665304396
 20
-805.0164264285
 10
-837.8040562779
 20
-798.9496804545
 10
-844.0591738363
 20
-792.6585502825
 10
-850.2231347674
 20
-786.1518346269
 10
-856.2873182144
 20
-779.438633718
 10
-862.2432428684
 20
-772.5283365741
 10
-868.0825788302
 20
-765.4306078707
 10
-873.7971592605
 20
-758.1553744233
 10
-879.3789918019
 20
-750.7128113035
 10
-884.8202697567
 20
-743.1133276091
 10
-890.1133830058
 20
-735.3675519049
 10
-895.2509286516
 20
-727.4863173588
 10
-900.225721372
 20
-719.48064659
 10
-905.0308034696
 20
-711.3617362528
 10
-909.6594546025
 20
-703.1409413776
 10
-914.1052011837
 20
-694.8297594894
 10
-918.3618254344
 20
-686.4398145274
 10
-922.4233740809
 20
-677.9828405884
 10
-926.28416668
 20
-669.4706655152
 10
-929.9388035642
 20
-660.9151943543
 10
-933.3821733933
 20
-652.3283927057
 10
-936.6094603034
 20
-643.722269988
 10
-939.6161506417
 20
-635.108862642
 10
-942.3980392801
 20
-626.5002172967
 10
-944.9512354957
 20
-617.908373921
 10
-947.2721684127
 20
-609.3453489848
 10
-949.3575919966
 20
-600.8231186529
 10
-951.2045895939
 20
-592.3536020348
 10
-952.8105780115
 20
-583.9486445155
 10
-954.1733111293
 20
-575.6200011881
 10
-955.2908830419
 20
-567.3793204132
 10
-956.1617307239
 20
-559.2381275282
 10
-956.7846362161
 20
-551.2078087275
 10
-957.1587283287
 20
-543.299595138
 10
-957.2834838602
 20
-535.5245471114
  0
LWPOLYLINE
  5
250
330
1F
100
AcDbEntity
  8
0
  6
Continuous
 62
     1
370
    25
100
AcDbPolyline
 90
       14
 70
   128
 43
0.0
 10
-959.5458146621
 20
-538.1353947731
 10
-959.421849432
 20
-530.5527273388
 10
-959.0501271186
 20
-523.1237921587
 10
-958.4311676089
 20
-515.8589792702
 10
-957.565836574
 20
-508.7684491712
 10
-956.4553442574
 20
-501.862118609
 10
-955.101243783
 20
-495.1496467116
 10
-953.505428983
 20
-488.6404214777
 10
-951.6701317484
 20
-482.3435466475
 10
-949.5979189085
 20
-476.2678289699
 10
-947.2916886404
 20
-470.4217658852
 10
-944.7546664155
 20
-464.8135336415
 10
-941.9904004888
 20
-459.4509758587
 10
-939.1698183777
 20
-454.6110600727
  0
LWPOLYLINE
  5
251
330
1F
100
AcDbEntity
  8
0
  6
Continuous
 62
     1
370
    25
100
AcDbPolyline
 90
       56
 70
   128
 43
0.0
 10
-699.8141890459
 20
-869.2870025219
 10
-705.3588495805
 20
-869.3088435028
 10
-711.3846176304
 20
-869.0223139159
 10
-717.5095310938
 20
-868.4161362607
 10
-723.7250237254
 20
-867.4911583315
 10
-730.0224025968
 20
-866.2486737937
 10
-736.3928602542
 20
-864.6904203741
 10
-742.8274870365
 20
-862.818577431
 10
-749.3172835364
 20
-860.6357629062
 10
-755.8531731865
 20
-858.145029663
 10
-762.4260149542
 20
-855.3498612172
 10
-769.026616126
 20
-852.2541668645
 10
-775.6457451643
 20
-848.8622762134
 10
-782.2741446186
 20
-845.1789331298
 10
-788.9025440729
 20
-841.2092891019
 10
-795.5216731112
 20
-836.958896036
 10
-802.122274283
 20
-832.4336984909
 10
-808.6951160507
 20
-827.6400253648
 10
-815.2310057008
 20
-822.5845810428
 10
-821.7208022007
 20
-817.2744360211
 10
-828.155428983
 20
-811.7170170175
 10
-834.5258866404
 20
-805.9200965852
 10
-840.8232655118
 20
-799.8917822414
 10
-847.0387581434
 20
-793.640505129
 10
-853.1636716068
 20
-787.1750082241
 10
-859.1894396567
 20
-780.5043341089
 10
-865.1076347115
 20
-773.6378123243
 10
-870.9099796403
 20
-766.5850463219
 10
-876.5883593392
 20
-759.3559000327
 10
-882.1348320805
 20
-751.9604840714
 10
-887.5416406207
 20
-744.4091415961
 10
-892.8012230492
 20
-736.7124338418
 10
-897.9062233642
 20
-728.8811253505
 10
-902.8495017613
 20
-720.9261689152
 10
-907.6241446186
 20
-712.8586902617
 10
-912.2234741663
 20
-704.6899724885
 10
-916.6410578263
 20
-696.431440286
 10
-920.8707172083
 20
-688.0946439582
 10
-924.9065367511
 20
-679.6912432687
 10
-928.7428719962
 20
-671.2329911331
 10
-932.374357482
 20
-662.7317171819
 10
-935.7959142475
 20
-654.1993112155
 10
-939.0027569363
 20
-645.6477065751
 10
-941.9904004888
 20
-637.088863453
 10
-944.7546664155
 20
-628.5347521654
 10
-947.2916886404
 20
-619.9973364102
 10
-949.5979189085
 20
-611.4885565355
 10
-951.6701317484
 20
-603.0203128392
 10
-953.505428983
 20
-594.604448926
 10
-955.101243783
 20
-586.2527351424
 10
-956.4553442574
 20
-577.9768521155
 10
-957.565836574
 20
-569.7883744158
 10
-958.4311676089
 20
-561.69875437
 10
-959.0501271186
 20
-553.7193060432
 10
-959.421849432
 20
-545.8611894153
 10
-959.5458146621
 20
-538.1353947731
  0
LWPOLYLINE
  5
252
330
1F
100
AcDbEntity
  8
0
  6
Continuous
 62
     1
370
    25
100
AcDbPolyline
 90
       64
 70
   128
 43
0.0
 10
-972.5371926907
 20
-545.6351576721
 10
-972.4132274607
 20
-553.3609523143
 10
-972.0415051472
 20
-561.2190689422
 10
-971.4225456376
 20
-569.198517269
 10
-970.5572146026
 20
-577.2881373148
 10
-969.446722286
 20
-585.4766150145
 10
-968.0926218117
 20
-593.7524980414
 10
-966.4968070116
 20
-602.104211825
 10
-964.6615097771
 20
-610.5200757382
 10
-962.5892969372
 20
-618.9883194345
 10
-960.283066669
 20
-627.4970993092
 10
-957.7460444441
 20
-636.0345150644
 10
-954.9817785175
 20
-644.588626352
 10
-951.9941349649
 20
-653.1474694741
 10
-948.7872922762
 20
-661.6990741145
 10
-945.3657355106
 20
-670.2314800809
 10
-941.7342500249
 20
-678.7327540321
 10
-937.8979147797
 20
-687.1910061677
 10
-933.8620952369
 20
-695.5944068572
 10
-929.632435855
 20
-703.931203185
 10
-925.214852195
 20
-712.1897353875
 10
-920.6155226472
 20
-720.3584531608
 10
-915.8408797899
 20
-728.4259318142
 10
-910.8976013928
 20
-736.3808882495
 10
-905.7926010778
 20
-744.2121967408
 10
-900.5330186494
 20
-751.9089044951
 10
-895.1262101092
 20
-759.4602469704
 10
-889.5797373678
 20
-766.8556629317
 10
-883.901357669
 20
-774.0848092209
 10
-878.0990127401
 20
-781.1375752233
 10
-872.1808176853
 20
-788.0040970079
 10
-866.1550496355
 20
-794.6747711231
 10
-860.0301361721
 20
-801.140268028
 10
-853.8146435404
 20
-807.3915451404
 10
-847.517264669
 20
-813.4198594842
 10
-841.1468070116
 20
-819.2167799165
 10
-834.7121802293
 20
-824.7741989201
 10
-828.2223837295
 20
-830.0843439418
 10
-821.6864940793
 20
-835.1397882638
 10
-815.1136523116
 20
-839.9334613899
 10
-808.5130511398
 20
-844.458658935
 10
-801.8939221015
 20
-848.7090520009
 10
-795.2655226472
 20
-852.6786960288
 10
-788.6371231929
 20
-856.3620391124
 10
-782.0179941547
 20
-859.7539297635
 10
-775.4173929829
 20
-862.8496241162
 10
-768.8445512151
 20
-865.644792562
 10
-762.308661565
 20
-868.1355258052
 10
-755.8188650652
 20
-870.31834033
 10
-749.3842382829
 20
-872.1901832731
 10
-743.0137806255
 20
-873.7484366927
 10
-736.7164017541
 20
-874.9909212305
 10
-730.5009091224
 20
-875.9158991597
 10
-724.375995659
 20
-876.5220768149
 10
-718.3502276092
 20
-876.8086064018
 10
-712.4320325543
 20
-876.7750871829
 10
-706.6296876255
 20
-876.4215660379
 10
-700.9513079267
 20
-875.7485373981
 10
-695.4048351853
 20
-874.7569425548
 10
-689.9980266451
 20
-873.4481683432
 10
-684.7384442167
 20
-871.8240452022
 10
-679.6334439016
 20
-869.886844615
 10
-674.6901655045
 20
-867.6392759318
 10
-673.836222941
 20
-867.2112115869
  0
LWPOLYLINE
  5
253
330
1F
100
AcDbEntity
  8
0
  6
Continuous
 62
     1
370
    25
100
AcDbPolyline
 90
       22
 70
   128
 43
0.0
 10
-924.4295598793
 20
-433.200142998
 10
-925.214852195
 20
-433.7177913072
 10
-929.632435855
 20
-436.8758899817
 10
-933.8620952369
 20
-440.3292255345
 10
-937.8979147797
 20
-444.0729681635
 10
-941.7342500249
 20
-448.1018819061
 10
-945.3657355106
 20
-452.4103319622
 10
-948.7872922762
 20
-456.9922925747
 10
-951.9941349649
 20
-461.8413554575
 10
-954.9817785175
 20
-466.9507387577
 10
-957.7460444441
 20
-472.3132965405
 10
-960.283066669
 20
-477.9215287842
 10
-962.5892969372
 20
-483.7675918689
 10
-964.6615097771
 20
-489.8433095465
 10
-966.4968070116
 20
-496.1401843767
 10
-968.0926218117
 20
-502.6494096106
 10
-969.446722286
 20
-509.361881508
 10
-970.5572146026
 20
-516.2682120702
 10
-971.4225456376
 20
-523.3587421692
 10
-972.0415051472
 20
-530.6235550577
 10
-972.4132274607
 20
-538.0524902378
 10
-972.5371926907
 20
-545.6351576721
  0
LWPOLYLINE
  5
254
330
1F
100
AcDbEntity
  8
0
  6
Continuous
 62
     1
370
    25
100
AcDbPolyline
 90
       86
 70
   128
 43
0.0
 10
-680.266001406
 20
-880.1586749628
 10
-682.5439092975
 20
-881.2765378054
 10
-687.6201469195
 20
-883.4818206202
 10
-692.8569842807
 20
-885.3746671687
 10
-698.2472932749
 20
-886.9525010081
 10
-703.7837368983
 20
-888.2131744745
 10
-709.4587792366
 20
-889.1549716058
 10
-715.2646957219
 20
-889.7766104774
 10
-721.1935836478
 20
-890.0772449475
 10
-727.2373729253
 20
-890.0564658082
 10
-733.3878370679
 20
-889.7143013431
 10
-739.6366043889
 20
-889.0512172882
 10
-745.9751693965
 20
-888.0681161987
 10
-752.394904371
 20
-886.7663362197
 10
-758.8870711085
 20
-885.1476492653
 10
-765.4428328148
 20
-883.2142586066
 10
-772.0532661335
 20
-880.9687958729
 10
-778.7093732922
 20
-878.4143174693
 10
-785.4020943496
 20
-875.5543004168
 10
-792.1223195277
 20
-872.3926376195
 10
-798.860901611
 20
-868.9336325656
 10
-805.6086683977
 20
-865.18199347
 10
-812.3564351845
 20
-861.1428268655
 10
-819.0950172678
 20
-856.8216306523
 10
-825.8152424458
 20
-852.2242866142
 10
-832.5079635033
 20
-847.3570524129
 10
-839.164070662
 20
-842.2265530704
 10
-845.7745039807
 20
-836.8397719512
 10
-852.330265687
 20
-831.2040412571
 10
-858.8224324245
 20
-825.3270320468
 10
-865.242167399
 20
-819.2167437945
 10
-871.5807324066
 20
-812.8814935018
 10
-877.8294997275
 20
-806.3299043765
 10
-883.9799638702
 20
-799.5708940953
 10
-890.0237531477
 20
-792.6136626659
 10
-895.9526410735
 20
-785.467679904
 10
-901.7585575589
 20
-778.1426725435
 10
-907.4335998972
 20
-770.6486109974
 10
-912.9700435206
 20
-762.9956957861
 10
-918.3603525148
 20
-755.1943436533
 10
-923.597189876
 20
-747.2551733872
 10
-928.673427498
 20
-739.1889913667
 10
-933.5821558745
 20
-731.0067768525
 10
-938.3166935039
 20
-722.7196670426
 10
-942.8705959838
 20
-714.3389419126
 10
-947.2376647827
 20
-705.8760088628
 10
-951.4119556776
 20
-697.3423871904
 10
-955.3877868442
 20
-688.74969241
 10
-959.1597465913
 20
-680.1096204436
 10
-962.7227007267
 20
-671.4339317006
 10
-966.0717995456
 20
-662.7344350699
 10
-969.2024844315
 20
-654.0229718466
 10
-972.1104940618
 20
-645.3113996138
 10
-974.7918702074
 20
-636.6115761033
 10
-977.2429631209
 20
-627.9353430551
 10
-979.460436504
 20
-619.2945100989
 10
-981.4412720494
 20
-610.7008386798
 10
-983.1827735482
 20
-602.1660260493
 10
-984.6825705607
 20
-593.7016893431
 10
-985.9386216425
 20
-585.319349769
 10
-986.9492171233
 20
-577.0304169246
 10
-987.7129814339
 20
-568.8461732671
 10
-988.2288749786
 20
-560.7777587564
 10
-988.4961955505
 20
-552.836155692
 10
-988.5145792869
 20
-545.0321737641
 10
-988.2840011649
 20
-537.3764353405
 10
-987.8047750352
 20
-529.8793610076
 10
-987.077553195
 20
-522.5511553869
 10
-986.1033255004
 20
-515.4017932444
 10
-984.8834180185
 20
-508.441005914
 10
-983.419491223
 20
-501.6782680516
 10
-981.7135377336
 20
-495.1227847384
 10
-979.767879604
 20
-488.7834789519
 10
-977.5851651613
 20
-482.6689794201
 10
-975.168365401
 20
-476.7876088765
 10
-972.5207699431
 20
-471.1473727318
 10
-969.6459825548
 20
-465.7559481774
 10
-966.5479162446
 20
-460.6206737354
 10
-963.2307879366
 20
-455.7485392699
 10
-959.6991127305
 20
-451.146176473
 10
-955.9576977561
 20
-446.8198498375
 10
-952.0116356296
 20
-442.7754481306
 10
-947.8662975222
 20
-439.0184763782
 10
-943.527325849
 20
-435.5540483716
 10
-939.0006265889
 20
-432.3868797071
 10
-938.749705271
 20
-432.2235835036
  0
LWPOLYLINE
  5
255
330
1F
100
AcDbEntity
  8
0
  6
Continuous
 62
     1
370
    25
100
AcDbPolyline
 90
       94
 70
   128
 43
0.0
 10
-912.5500113974
 20
-422.0444531456
 10
-916.1199774861
 20
-423.2575442121
 10
-921.2342909379
 20
-425.3021583256
 10
-926.1852101785
 20
-427.6559141477
 10
-930.9659728479
 20
-430.3155967312
 10
-935.5700489993
 20
-433.2775732694
 10
-939.9911500185
 20
-436.5377980588
 10
-944.2232372133
 20
-440.0918180245
 10
-948.2605300616
 20
-443.9347788027
 10
-952.0975141071
 20
-448.0614313712
 10
-955.728948491
 20
-452.4661392189
 10
-959.1498731109
 20
-457.1428860449
 10
-962.3556153951
 20
-462.0852839754
 10
-965.3417966853
 20
-467.2865822895
 10
-968.1043382171
 20
-472.7396766391
 10
-970.639466691
 20
-478.4371187535
 10
-972.9437194265
 20
-484.371126612
 10
-975.0139490915
 20
-490.5335950736
 10
-976.8473280014
 20
-496.9161069477
 10
-978.4413519809
 20
-503.5099444907
 10
-979.7938437852
 20
-510.3061013138
 10
-980.9029560732
 20
-517.2952946843
 10
-981.7671739307
 20
-524.4679782045
 10
-982.3853169403
 20
-531.8143548518
 10
-982.7565407928
 20
-539.3243903591
 10
-982.8803384412
 20
-546.9878269215
 10
-982.7565407928
 20
-554.7941972062
 10
-982.3853169403
 20
-562.7328386506
 10
-981.7671739307
 20
-570.7929080253
 10
-980.9029560732
 20
-578.963396245
 10
-979.7938437852
 20
-587.2331434057
 10
-978.4413519809
 20
-595.5908540274
 10
-976.8473280014
 20
-604.0251124829
 10
-975.0139490915
 20
-612.5243985894
 10
-972.9437194265
 20
-621.0771033446
 10
-970.639466691
 20
-629.6715447826
 10
-968.1043382171
 20
-638.2959839301
 10
-965.3417966853
 20
-646.9386408406
 10
-962.3556153951
 20
-655.5877106845
 10
-959.1498731109
 20
-664.2313798726
 10
-955.728948491
 20
-672.8578421925
 10
-952.0975141071
 20
-681.4553149345
 10
-948.2605300616
 20
-690.0120549848
 10
-944.2232372133
 20
-698.5163748658
 10
-939.9911500185
 20
-706.9566586995
 10
-935.5700489993
 20
-715.3213780735
 10
-930.9659728479
 20
-723.5991077872
 10
-926.1852101785
 20
-731.7785414575
 10
-921.2342909379
 20
-739.848506962
 10
-916.1199774861
 20
-747.7979816983
 10
-910.8492553602
 20
-755.6161076404
 10
-905.4293237327
 20
-763.2922061685
 10
-899.8675855782
 20
-770.8157926553
 10
-894.1716375619
 20
-778.1765907868
 10
-888.3492596639
 20
-785.3645465981
 10
-882.4084045518
 20
-792.3698422061
 10
-876.3571867192
 20
-799.1829092197
 10
-870.2038714018
 20
-805.7944418088
 10
-863.9568632882
 20
-812.1954094152
 10
-857.6246950399
 20
-818.3770690872
 10
-851.2160156372
 20
-824.3309774211
 10
-844.7395785652
 20
-830.0490020944
 10
-838.204229858
 20
-835.5233329732
 10
-831.6188960158
 20
-840.7464927799
 10
-824.9925718125
 20
-845.7113473065
 10
-818.3343080098
 20
-850.411115159
 10
-811.6531989953
 20
-854.8393770198
 10
-804.9583703603
 20
-858.9900844158
 10
-798.2589664352
 20
-862.85756798
 10
-791.5641378002
 20
-866.4365451951
 10
-784.8830287857
 20
-869.7221276086
 10
-778.224764983
 20
-872.7098275103
 10
-771.5984407797
 20
-875.3955640615
 10
-765.0131069375
 20
-877.775668869
 10
-758.4777582302
 20
-879.8468909959
 10
-752.0013211583
 20
-881.6064014021
 10
-745.5926417556
 20
-883.051796808
 10
-739.2604735073
 20
-884.1811029771
 10
-733.0134653937
 20
-884.9927774133
 10
-726.8601500763
 20
-885.4857114668
 10
-720.8089322437
 20
-885.659231849
 10
-714.8680771316
 20
-885.513101552
 10
-709.0456992335
 20
-885.0475201721
 10
-703.3497512173
 20
-884.2631236375
 10
-697.7880130628
 20
-883.1609833396
 10
-692.3680814352
 20
-881.7426046693
 10
-687.0973593094
 20
-880.0099249614
 10
-681.9830458576
 20
-877.9653108479
 10
-677.032126617
 20
-875.6115550258
 10
-672.2513639475
 20
-872.9518724424
 10
-667.6472877961
 20
-869.9898959041
 10
-663.2261867769
 20
-866.7296711147
 10
-658.9940995822
 20
-863.175651149
 10
-658.174744086
 20
-862.4335581836
  0
LWPOLYLINE
  5
256
330
1F
100
AcDbEntity
  8
0
  6
Continuous
 62
     1
370
    25
100
AcDbPolyline
 90
       24
 70
   128
 43
0.0
 10
-978.1940469402
 20
-546.9878269215
 10
-978.0689230799
 20
-539.3342887454
 10
-977.6937264962
 20
-531.8359196686
 10
-977.0689819353
 20
-524.5032068382
 10
-976.1955631591
 20
-517.3464057161
 10
-975.0746917226
 20
-510.3755257359
 10
-973.7079352659
 20
-503.6003163035
 10
-972.0972053216
 20
-497.030253162
 10
-970.244754641
 20
-490.6745251388
 10
-968.153174044
 20
-484.5420212941
 10
-965.8253887952
 20
-478.6413184892
 10
-963.2646545127
 20
-472.9806693905
 10
-960.4745526149
 20
-467.5679909276
 10
-957.4589853117
 20
-462.4108532208
 10
-954.2221701466
 20
-457.5164689934
 10
-950.7686340983
 20
-452.8916834844
 10
-947.1032072492
 20
-448.5429648745
 10
-943.2310160303
 20
-444.4763952399
 10
-939.157476051
 20
-440.697662046
 10
-934.8882845254
 20
-437.2120501927
 10
-930.4294123039
 20
-434.0244346236
 10
-925.7870955225
 20
-431.1392735071
 10
-920.9678268809
 20
-428.5606020019
 10
-918.5926045086
 20
-427.4322829716
  0
LWPOLYLINE
  5
257
330
1F
100
AcDbEntity
  8
0
  6
Continuous
 62
     1
370
    25
100
AcDbPolyline
 90
       66
 70
   128
 43
0.0
 10
-665.6483790929
 20
-864.8376572382
 10
-668.1016329905
 20
-866.5376960512
 10
-672.743949772
 20
-869.4228571677
 10
-677.5632184136
 20
-872.0015286728
 10
-682.5526987324
 20
-874.2701040613
 10
-687.7054124889
 20
-876.2254105253
 10
-693.0141531472
 20
-877.864713392
 10
-698.4714959533
 20
-879.185719948
 10
-704.0698083198
 20
-880.1865826462
 10
-709.8012605008
 20
-880.8659016897
 10
-715.6578365419
 20
-881.2227269894
 10
-721.6313454922
 20
-881.2565594927
 10
-727.7134328592
 20
-880.9673518819
 10
-733.8955922937
 20
-880.35550864
 10
-740.1691774867
 20
-879.4218854851
 10
-746.5254142622
 20
-878.1677881735
 10
-752.9554128481
 20
-876.5949706738
 10
-759.4501803101
 20
-874.7056327135
 10
-766.0006331286
 20
-872.5024167025
 10
-772.5976099031
 20
-869.9884040376
 10
-779.2318841648
 20
-867.167110793
 10
-785.8941772815
 20
-864.0424828022
 10
-792.5751714338
 20
-860.6188901401
 10
-799.2655226472
 20
-856.9011210106
 10
-805.9558738607
 20
-852.89437505
 10
-812.6368680129
 20
-848.6042560549
 10
-819.2991611296
 20
-844.0367641444
 10
-825.9334353914
 20
-839.1982873692
 10
-832.5304121658
 20
-834.0955927765
 10
-839.0808649843
 20
-828.7358169461
 10
-845.5756324463
 20
-823.1264560091
 10
-852.0056310323
 20
-817.275355164
 10
-858.3618678077
 20
-811.1906977044
 10
-864.6354530008
 20
-804.880993574
 10
-870.8176124353
 20
-798.3550674645
 10
-876.8996998023
 20
-791.6220464738
 10
-882.8732087525
 20
-784.6913473404
 10
-888.7297847937
 20
-777.5726632738
 10
-894.4612369746
 20
-770.2759503974
 10
-900.0595493412
 20
-762.8114138239
 10
-905.5168921473
 20
-755.1894933827
 10
-910.8256328055
 20
-747.4208490187
 10
-915.9783465621
 20
-739.5163458836
 10
-920.9678268809
 20
-731.4870391396
 10
-925.7870955225
 20
-723.3441584984
 10
-930.4294123039
 20
-715.0990925149
 10
-934.8882845254
 20
-706.7633726592
 10
-939.157476051
 20
-698.3486571895
 10
-943.2310160303
 20
-689.8667148461
 10
-947.1032072492
 20
-681.3294083924
 10
-950.7686340983
 20
-672.7486780235
 10
-954.2221701466
 20
-664.1365246666
 10
-957.4589853117
 20
-655.5049931971
 10
-960.4745526149
 20
-646.866155592
 10
-963.2646545127
 20
-638.232094047
 10
-965.8253887952
 20
-629.6148840778
 10
-968.153174044
 20
-621.0265776319
 10
-970.244754641
 20
-612.4791862323
 10
-972.0972053216
 20
-603.9846641788
 10
-973.7079352659
 20
-595.5548918286
 10
-975.0746917226
 20
-587.2016589805
 10
-976.1955631591
 20
-578.9366483861
 10
-977.0689819353
 20
-570.7714194099
 10
-977.6937264962
 20
-562.7173918632
 10
-978.0689230799
 20
-554.7858300315
 10
-978.1940469402
 20
-546.9878269215
  0
LWPOLYLINE
  5
258
330
1F
100
AcDbEntity
  8
0
  6
Continuous
 62
     1
370
    25
100
AcDbPolyline
 90
       86
 70
   128
 43
0.0
 10
-948.2507733204
 20
-437.6961927829
 10
-948.5590236787
 20
-437.8959043324
 10
-953.0923065634
 20
-441.0566971129
 10
-957.4378615315
 20
-444.5151074731
 10
-961.5897687962
 20
-448.2664241499
 10
-965.5423723694
 20
-452.305536865
 10
-969.2902877671
 20
-456.6269432862
 10
-972.8284093444
 20
-461.2247565231
 10
-976.1519172506
 20
-466.0927131468
 10
-979.2562839951
 20
-471.2241817221
 10
-982.1372806153
 20
-476.6121718411
 10
-984.7909824373
 20
-482.2493436467
 10
-987.2137744223
 20
-488.1280178303
 10
-989.4023560913
 20
-494.2401860942
 10
-991.3537460216
 20
-500.57752206
 10
-993.0652859075
 20
-507.1313926121
 10
-994.5346441822
 20
-513.8928696577
 10
-995.7598191941
 20
-520.8527422896
 10
-996.7391419329
 20
-528.0015293336
 10
-997.471278304
 20
-535.3294922645
 10
-997.9552309453
 20
-542.8266484725
 10
-998.1903405863
 20
-550.4827848622
 10
-998.1762869459
 20
-558.2874717652
 10
-997.9130891688
 20
-566.2300771486
 10
-997.4011057996
 20
-574.2997810982
 10
-996.641034294
 20
-582.4855905581
 10
-995.633910069
 20
-590.7763543062
 10
-994.3811050922
 20
-599.1607781452
 10
-992.8843260131
 20
-607.6274402882
 10
-991.1456118378
 20
-616.1648069179
 10
-989.1673311516
 20
-624.7612478992
 10
-986.9521788922
 20
-633.4050526221
 10
-984.5031726787
 20
-642.0844459546
 10
-981.8236487007
 20
-650.787604284
 10
-978.9172571734
 20
-659.5026716231
 10
-975.7879573654
 20
-668.2177757617
 10
-972.4400122047
 20
-676.9210444394
 10
-968.8779824718
 20
-685.6006215189
 10
-965.1067205865
 20
-694.2446831369
 10
-961.1313639979
 20
-702.8414538116
 10
-956.9573281855
 20
-711.3792224839
 10
-952.5902992822
 20
-719.8463584708
 10
-948.0362263282
 20
-728.2313273098
 10
-943.3013131665
 20
-736.5227064714
 10
-938.3920099925
 20
-744.70920092
 10
-933.3150045661
 20
-752.7796585002
 10
-928.0772131019
 20
-760.7230851297
 10
-922.6857708474
 20
-768.5286597755
 10
-917.1480223626
 20
-776.1857491952
 10
-911.4715115152
 20
-783.6839224222
 10
-905.6639712035
 20
-791.0129649758
 10
-899.7333128226
 20
-798.1628927752
 10
-893.6876154864
 20
-805.1239657414
 10
-887.5351150224
 20
-811.886701065
 10
-881.2841927518
 20
-818.4418861246
 10
-874.9433640721
 20
-824.7805910368
 10
-868.5212668572
 20
-830.8941808211
 10
-862.0266496898
 20
-836.7743271626
 10
-855.4683599441
 20
-842.4130197581
 10
-848.8553317326
 20
-847.8025772275
 10
-842.1965737366
 20
-852.9356575781
 10
-835.5011569329
 20
-857.8052682068
 10
-828.7782022374
 20
-862.4047754251
 10
-822.0368680797
 20
-866.7279134962
 10
-815.2863379274
 20
-870.7687931711
 10
-808.5358077751
 20
-874.5219097103
 10
-801.7944736174
 20
-877.9821503836
 10
-795.0715189219
 20
-881.1448014346
 10
-788.3761021182
 20
-884.0055545021
 10
-781.7173441222
 20
-886.5605124891
 10
-775.1043159108
 20
-888.806194872
 10
-768.546026165
 20
-890.7395424417
 10
-762.0514089976
 20
-892.3579214709
 10
-755.6293117827
 20
-893.6591273027
 10
-749.288483103
 20
-894.6413873529
 10
-743.0375608324
 20
-895.3033635253
 10
-736.8850603684
 20
-895.6441540347
 10
-730.8393630322
 20
-895.6632946348
 10
-724.9087046513
 20
-895.3607592511
 10
-719.1011643397
 20
-894.7369600163
 10
-713.4246534922
 20
-893.7927467087
 10
-707.8869050074
 20
-892.5294055948
 10
-702.4954627529
 20
-890.948657677
 10
-697.2576712887
 20
-889.0526563489
 10
-692.1806658623
 20
-886.8439844624
 10
-689.650447915
 20
-885.5955037918
  0
ENDSEC
  0
SECTION
  2
OBJECTS
  0
DICTIONARY
  5
C
330
0
100
AcDbDictionary
281
     1
  3
ACAD_GROUP
350
D
  3
ACAD_LAYOUT
350
1A
  3
ACAD_MLINESTYLE
350
17
  3
ACAD_PLOTSETTINGS
350
19
  3
ACAD_PLOTSTYLENAME
350
E
  3
ACAD_SCALELIST
350
47
  3
DWGPROPS
350
259
  0
DICTIONARY
  5
D
102
{ACAD_REACTORS
330
C
102
}
330
C
100
AcDbDictionary
281
     1
  0
DICTIONARY
  5
1A
102
{ACAD_REACTORS
330
C
102
}
330
C
100
AcDbDictionary
281
     1
  3
Layout1
350
1E
  3
Layout2
350
26
  3
Model
350
22
  0
DICTIONARY
  5
17
102
{ACAD_REACTORS
330
C
102
}
330
C
100
AcDbDictionary
281
     1
  3
Standard
350
18
  0
DICTIONARY
  5
19
102
{ACAD_REACTORS
330
C
102
}
330
C
100
AcDbDictionary
281
     1
  0
ACDBDICTIONARYWDFLT
  5
E
102
{ACAD_REACTORS
330
C
102
}
330
C
100
AcDbDictionary
281
     1
  3
Normal
350
F
100
AcDbDictionaryWithDefault
340
F
  0
DICTIONARY
  5
47
102
{ACAD_REACTORS
330
C
102
}
330
C
100
AcDbDictionary
281
     1
  3
A0
350
48
  3
A1
350
49
  3
A2
350
4A
  3
A3
350
4B
  3
A4
350
4C
  3
A5
350
4D
  3
A6
350
4E
  3
A7
350
4F
  3
A8
350
50
  3
A9
350
51
  3
B0
350
52
  3
B1
350
53
  3
B2
350
54
  3
B3
350
55
  3
B4
350
56
  3
B5
350
57
  3
B6
350
58
  3
B7
350
59
  3
B8
350
5A
  3
B9
350
5B
  3
C0
350
5C
  3
C1
350
5D
  3
C2
350
5E
  3
C3
350
5F
  3
C4
350
60
  3
C5
350
61
  3
C6
350
62
  3
C7
350
63
  3
C8
350
64
  3
C9
350
65
  3
D0
350
66
  3
D1
350
67
  3
D2
350
68
  0
XRECORD
  5
259
102
{ACAD_REACTORS
330
C
102
}
330
C
100
AcDbXrecord
280
     1
  1
DWGPROPS COOKIE
  2

  3

  4

  6

  7

  8
b.kav
  9

300
=
301
=
302
=
303
=
304
=
305
=
306
=
307
=
308
=
309
=
 40
0.0
 41
2460837.337241748
 42
2460837.337242245
  1

 90
        0
  0
LAYOUT
  5
1E
102
{ACAD_REACTORS
330
1A
102
}
330
1A
100
AcDbPlotSettings
  1

  2
none_device
  4

  6

 40
0.0
 41
0.0
 42
0.0
 43
0.0
 44
0.0
 45
0.0
 46
0.0
 47
0.0
 48
0.0
 49
0.0
140
0.0
141
0.0
142
1.0
143
1.0
 70
   688
 72
     1
 73
     0
 74
     5
  7

 75
    16
147
1.0
148
0.0
149
0.0
100
AcDbLayout
  1
Layout1
 70
     1
 71
     1
 10
0.0
 20
0.0
 11
420.0
 21
297.0
 12
0.0
 22
0.0
 32
0.0
 14
1.0000000000E+20
 24
1.0000000000E+20
 34
1.0000000000E+20
 15
-1.0000000000E+20
 25
-1.0000000000E+20
 35
-1.0000000000E+20
146
0.0
 13
0.0
 23
0.0
 33
0.0
 16
1.0
 26
0.0
 36
0.0
 17
0.0
 27
1.0
 37
0.0
 76
     0
330
1B
  0
LAYOUT
  5
26
102
{ACAD_REACTORS
330
1A
102
}
330
1A
100
AcDbPlotSettings
  1

  2
none_device
  4

  6

 40
0.0
 41
0.0
 42
0.0
 43
0.0
 44
0.0
 45
0.0
 46
0.0
 47
0.0
 48
0.0
 49
0.0
140
0.0
141
0.0
142
1.0
143
1.0
 70
   688
 72
     1
 73
     0
 74
     5
  7

 75
    16
147
1.0
148
0.0
149
0.0
100
AcDbLayout
  1
Layout2
 70
     1
 71
     2
 10
0.0
 20
0.0
 11
0.0
 21
0.0
 12
0.0
 22
0.0
 32
0.0
 14
0.0
 24
0.0
 34
0.0
 15
0.0
 25
0.0
 35
0.0
146
0.0
 13
0.0
 23
0.0
 33
0.0
 16
1.0
 26
0.0
 36
0.0
 17
0.0
 27
1.0
 37
0.0
 76
     0
330
23
  0
LAYOUT
  5
22
102
{ACAD_REACTORS
330
1A
102
}
330
1A
100
AcDbPlotSettings
  1

  2
none_device
  4
Letter_(8.50_x_11.00_Inches)
  6

 40
6.35
 41
6.35
 42
6.35000508
 43
6.35000508
 44
215.9
 45
279.4
 46
0.0
 47
0.0
 48
0.0
 49
0.0
140
0.0
141
0.0
142
1.0
143
1.0
 70
  1712
 72
     1
 73
     0
 74
     0
  7

 75
     0
147
1.0
148
0.0
149
0.0
100
AcDbLayout
  1
Model
 70
     1
 71
     0
 10
0.0
 20
0.0
 11
279.4
 21
215.9
 12
0.0
 22
0.0
 32
0.0
 14
0.0
 24
0.0
 34
0.0
 15
279.4
 25
215.9
 35
0.0
146
0.0
 13
0.0
 23
0.0
 33
0.0
 16
1.0
 26
0.0
 36
0.0
 17
0.0
 27
1.0
 37
0.0
 76
     0
330
1F
331
29
  0
MLINESTYLE
  5
18
102
{ACAD_REACTORS
330
17
102
}
330
17
100
AcDbMlineStyle
  2
Standard
 70
     0
  3

 62
   256
 51
90.0
 52
90.0
 71
     2
 49
0.5
 62
   256
  6
BYLAYER
 49
-0.5
 62
   256
  6
BYLAYER
  0
ACDBPLACEHOLDER
  5
F
102
{ACAD_REACTORS
330
E
102
}
330
E
  0
SCALE
  5
48
102
{ACAD_REACTORS
330
47
102
}
330
47
100
AcDbScale
 70
     0
300
1:1
140
1.0
141
1.0
290
     1
  0
SCALE
  5
49
102
{ACAD_REACTORS
330
47
102
}
330
47
100
AcDbScale
 70
     0
300
1:2
140
1.0
141
2.0
290
     0
  0
SCALE
  5
4A
102
{ACAD_REACTORS
330
47
102
}
330
47
100
AcDbScale
 70
     0
300
1:4
140
1.0
141
4.0
290
     0
  0
SCALE
  5
4B
102
{ACAD_REACTORS
330
47
102
}
330
47
100
AcDbScale
 70
     0
300
1:5
140
1.0
141
5.0
290
     0
  0
SCALE
  5
4C
102
{ACAD_REACTORS
330
47
102
}
330
47
100
AcDbScale
 70
     0
300
1:8
140
1.0
141
8.0
290
     0
  0
SCALE
  5
4D
102
{ACAD_REACTORS
330
47
102
}
330
47
100
AcDbScale
 70
     0
300
1:10
140
1.0
141
10.0
290
     0
  0
SCALE
  5
4E
102
{ACAD_REACTORS
330
47
102
}
330
47
100
AcDbScale
 70
     0
300
1:16
140
1.0
141
16.0
290
     0
  0
SCALE
  5
4F
102
{ACAD_REACTORS
330
47
102
}
330
47
100
AcDbScale
 70
     0
300
1:20
140
1.0
141
20.0
290
     0
  0
SCALE
  5
50
102
{ACAD_REACTORS
330
47
102
}
330
47
100
AcDbScale
 70
     0
300
1:30
140
1.0
141
30.0
290
     0
  0
SCALE
  5
51
102
{ACAD_REACTORS
330
47
102
}
330
47
100
AcDbScale
 70
     0
300
1:40
140
1.0
141
40.0
290
     0
  0
SCALE
  5
52
102
{ACAD_REACTORS
330
47
102
}
330
47
100
AcDbScale
 70
     0
300
1:50
140
1.0
141
50.0
290
     0
  0
SCALE
  5
53
102
{ACAD_REACTORS
330
47
102
}
330
47
100
AcDbScale
 70
     0
300
1:100
140
1.0
141
100.0
290
     0
  0
SCALE
  5
54
102
{ACAD_REACTORS
330
47
102
}
330
47
100
AcDbScale
 70
     0
300
2:1
140
2.0
141
1.0
290
     0
  0
SCALE
  5
55
102
{ACAD_REACTORS
330
47
102
}
330
47
100
AcDbScale
 70
     0
300
4:1
140
4.0
141
1.0
290
     0
  0
SCALE
  5
56
102
{ACAD_REACTORS
330
47
102
}
330
47
100
AcDbScale
 70
     0
300
8:1
140
8.0
141
1.0
290
     0
  0
SCALE
  5
57
102
{ACAD_REACTORS
330
47
102
}
330
47
100
AcDbScale
 70
     0
300
10:1
140
10.0
141
1.0
290
     0
  0
SCALE
  5
58
102
{ACAD_REACTORS
330
47
102
}
330
47
100
AcDbScale
 70
     0
300
100:1
140
100.0
141
1.0
290
     0
  0
SCALE
  5
59
102
{ACAD_REACTORS
330
47
102
}
330
47
100
AcDbScale
 70
     0
300
1/128" = 1'-0"
140
0.0078125
141
12.0
290
     0
  0
SCALE
  5
5A
102
{ACAD_REACTORS
330
47
102
}
330
47
100
AcDbScale
 70
     0
300
1/64" = 1'-0"
140
0.015625
141
12.0
290
     0
  0
SCALE
  5
5B
102
{ACAD_REACTORS
330
47
102
}
330
47
100
AcDbScale
 70
     0
300
1/32" = 1'-0"
140
0.03125
141
12.0
290
     0
  0
SCALE
  5
5C
102
{ACAD_REACTORS
330
47
102
}
330
47
100
AcDbScale
 70
     0
300
1/16" = 1'-0"
140
0.0625
141
12.0
290
     0
  0
SCALE
  5
5D
102
{ACAD_REACTORS
330
47
102
}
330
47
100
AcDbScale
 70
     0
300
3/32" = 1'-0"
140
0.09375
141
12.0
290
     0
  0
SCALE
  5
5E
102
{ACAD_REACTORS
330
47
102
}
330
47
100
AcDbScale
 70
     0
300
1/8" = 1'-0"
140
0.125
141
12.0
290
     0
  0
SCALE
  5
5F
102
{ACAD_REACTORS
330
47
102
}
330
47
100
AcDbScale
 70
     0
300
3/16" = 1'-0"
140
0.1875
141
12.0
290
     0
  0
SCALE
  5
60
102
{ACAD_REACTORS
330
47
102
}
330
47
100
AcDbScale
 70
     0
300
1/4" = 1'-0"
140
0.25
141
12.0
290
     0
  0
SCALE
  5
61
102
{ACAD_REACTORS
330
47
102
}
330
47
100
AcDbScale
 70
     0
300
3/8" = 1'-0"
140
0.375
141
12.0
290
     0
  0
SCALE
  5
62
102
{ACAD_REACTORS
330
47
102
}
330
47
100
AcDbScale
 70
     0
300
1/2" = 1'-0"
140
0.5
141
12.0
290
     0
  0
SCALE
  5
63
102
{ACAD_REACTORS
330
47
102
}
330
47
100
AcDbScale
 70
     0
300
3/4" = 1'-0"
140
0.75
141
12.0
290
     0
  0
SCALE
  5
64
102
{ACAD_REACTORS
330
47
102
}
330
47
100
AcDbScale
 70
     0
300
1" = 1'-0"
140
1.0
141
12.0
290
     0
  0
SCALE
  5
65
102
{ACAD_REACTORS
330
47
102
}
330
47
100
AcDbScale
 70
     0
300
1-1/2" = 1'-0"
140
1.5
141
12.0
290
     0
  0
SCALE
  5
66
102
{ACAD_REACTORS
330
47
102
}
330
47
100
AcDbScale
 70
     0
300
3" = 1'-0"
140
3.0
141
12.0
290
     0
  0
SCALE
  5
67
102
{ACAD_REACTORS
330
47
102
}
330
47
100
AcDbScale
 70
     0
300
6" = 1'-0"
140
6.0
141
12.0
290
     0
  0
SCALE
  5
68
102
{ACAD_REACTORS
330
47
102
}
330
47
100
AcDbScale
 70
     0
300
1'-0" = 1'-0"
140
12.0
141
12.0
290
     0
  0
ENDSEC
  0
EOF
